  0
SECTION
  2
HEADER
  9
$ACADVER
  1
AC1015
  9
$ACADMAINTVER
 70
     6
  9
$DWGCODEPAGE
  3
ANSI_932
  9
$INSBASE
 10
0.0
 20
0.0
 30
0.0
  9
$EXTMIN
 10
4.938889
 20
68.230116
 30
1.000000E+20
  9
$EXTMAX
 10
203.905211
 20
243.595467
 30
-1.000000E+20
  9
$LIMMIN
 10
4.938889
 20
68.230116
  9
$LIMMAX
 10
203.905211
 20
243.595467
  9
$ORTHOMODE
 70
     0
  9
$REGENMODE
 70
     1
  9
$FILLMODE
 70
     1
  9
$QTEXTMODE
 70
     0
  9
$MIRRTEXT
 70
     1
  9
$LTSCALE
 40
1.0
  9
$ATTMODE
 70
     1
  9
$TEXTSIZE
 40
0.2
  9
$TRACEWID
 40
0.05
  9
$TEXTSTYLE
  7
Standard
  9
$CLAYER
  8
0
  9
$CELTYPE
  6
Continuous
  9
$CECOLOR
 62
   256
  9
$CELTSCALE
 40
1.0
  9
$DISPSILH
 70
     0
  9
$DIMSCALE
 40
1.0
  9
$DIMASZ
 40
0.18
  9
$DIMEXO
 40
0.0625
  9
$DIMDLI
 40
0.38
  9
$DIMRND
 40
0.0
  9
$DIMDLE
 40
0.0
  9
$DIMEXE
 40
0.18
  9
$DIMTP
 40
0.0
  9
$DIMTM
 40
0.0
  9
$DIMTXT
 40
0.18
  9
$DIMCEN
 40
0.09
  9
$DIMTSZ
 40
0.0
  9
$DIMTOL
 70
     0
  9
$DIMLIM
 70
     0
  9
$DIMTIH
 70
     1
  9
$DIMTOH
 70
     1
  9
$DIMSE1
 70
     0
  9
$DIMSE2
 70
     0
  9
$DIMTAD
 70
     0
  9
$DIMZIN
 70
     0
  9
$DIMBLK
  1

  9
$DIMASO
 70
     1
  9
$DIMSHO
 70
     1
  9
$DIMPOST
  1

  9
$DIMAPOST
  1

  9
$DIMALT
 70
     0
  9
$DIMALTD
 70
     2
  9
$DIMALTF
 40
25.4
  9
$DIMLFAC
 40
1.0
  9
$DIMTOFL
 70
     0
  9
$DIMTVP
 40
0.0
  9
$DIMTIX
 70
     0
  9
$DIMSOXD
 70
     0
  9
$DIMSAH
 70
     0
  9
$DIMBLK1
  1

  9
$DIMBLK2
  1

  9
$DIMSTYLE
  2
Standard
  9
$DIMCLRD
 70
     0
  9
$DIMCLRE
 70
     0
  9
$DIMCLRT
 70
     0
  9
$DIMTFAC
 40
1.0
  9
$DIMGAP
 40
0.09
  9
$DIMJUST
 70
     0
  9
$DIMSD1
 70
     0
  9
$DIMSD2
 70
     0
  9
$DIMTOLJ
 70
     1
  9
$DIMTZIN
 70
     0
  9
$DIMALTZ
 70
     0
  9
$DIMALTTZ
 70
     0
  9
$DIMUPT
 70
     0
  9
$DIMDEC
 70
     4
  9
$DIMTDEC
 70
     4
  9
$DIMALTU
 70
     2
  9
$DIMALTTD
 70
     2
  9
$DIMTXSTY
  7
Standard
  9
$DIMAUNIT
 70
     0
  9
$DIMADEC
 70
     0
  9
$DIMALTRND
 40
0.0
  9
$DIMAZIN
 70
     0
  9
$DIMDSEP
 70
     0
  9
$DIMATFIT
 70
     3
  9
$DIMFRAC
 70
     0
  9
$DIMLDRBLK
  1

  9
$DIMLUNIT
 70
     2
  9
$DIMLWD
 70
     0
  9
$DIMLWE
 70
     0
  9
$DIMTMOVE
 70
     0
  9
$LUNITS
 70
     2
  9
$LUPREC
 70
     4
  9
$SKETCHINC
 40
0.1
  9
$FILLETRAD
 40
0.0
  9
$AUNITS
 70
     0
  9
$AUPREC
 70
     0
  9
$MENU
  1
acad
  9
$ELEVATION
 40
0.0
  9
$PELEVATION
 40
0.0
  9
$THICKNESS
 40
0.0
  9
$LIMCHECK
 70
     0
  9
$CHAMFERA
 40
0.0
  9
$CHAMFERB
 40
0.0
  9
$CHAMFERC
 40
0.0
  9
$CHAMFERD
 40
0.0
  9
$SKPOLY
 70
     0
  9
$TDCREATE
 40
0.000000000
  9
$TDUCREATE
 40
0.000000000
  9
$TDUPDATE
 40
0.000000000
  9
$TDUUPDATE
 40
0.000000000
  9
$TDINDWG
 40
0.0000000000
  9
$TDUSRTIMER
 40
0.0000000000
  9
$USRTIMER
 70
     1
  9
$ANGBASE
 50
0.0
  9
$ANGDIR
 70
     0
  9
$PDMODE
 70
     0
  9
$PDSIZE
 40
0.0
  9
$PLINEWID
 40
0.0
  9
$SPLFRAME
 70
     0
  9
$SPLINETYPE
 70
     6
  9
$SPLINESEGS
 70
     8
  9
$HANDSEED
  5
23C
  9
$SURFTAB1
 70
     6
  9
$SURFTAB2
 70
     6
  9
$SURFTYPE
 70
     6
  9
$SURFU
 70
     6
  9
$SURFV
 70
     6
  9
$UCSBASE
  2

  9
$UCSNAME
  2

  9
$UCSORG
 10
0.0
 20
0.0
 30
0.0
  9
$UCSXDIR
 10
1.0
 20
0.0
 30
0.0
  9
$UCSYDIR
 10
0.0
 20
1.0
 30
0.0
  9
$UCSORTHOREF
  2

  9
$UCSORTHOVIEW
 70
     0
  9
$UCSORGTOP
 10
0.0
 20
0.0
 30
0.0
  9
$UCSORGBOTTOM
 10
0.0
 20
0.0
 30
0.0
  9
$UCSORGLEFT
 10
0.0
 20
0.0
 30
0.0
  9
$UCSORGRIGHT
 10
0.0
 20
0.0
 30
0.0
  9
$UCSORGFRONT
 10
0.0
 20
0.0
 30
0.0
  9
$UCSORGBACK
 10
0.0
 20
0.0
 30
0.0
  9
$PUCSBASE
  2

  9
$PUCSNAME
  2

  9
$PUCSORG
 10
0.0
 20
0.0
 30
0.0
  9
$PUCSXDIR
 10
1.0
 20
0.0
 30
0.0
  9
$PUCSYDIR
 10
0.0
 20
1.0
 30
0.0
  9
$PUCSORTHOREF
  2

  9
$PUCSORTHOVIEW
 70
     0
  9
$PUCSORGTOP
 10
0.0
 20
0.0
 30
0.0
  9
$PUCSORGBOTTOM
 10
0.0
 20
0.0
 30
0.0
  9
$PUCSORGLEFT
 10
0.0
 20
0.0
 30
0.0
  9
$PUCSORGRIGHT
 10
0.0
 20
0.0
 30
0.0
  9
$PUCSORGFRONT
 10
0.0
 20
0.0
 30
0.0
  9
$PUCSORGBACK
 10
0.0
 20
0.0
 30
0.0
  9
$USERI1
 70
     0
  9
$USERI2
 70
     0
  9
$USERI3
 70
     0
  9
$USERI4
 70
     0
  9
$USERI5
 70
     0
  9
$USERR1
 40
0.0
  9
$USERR2
 40
0.0
  9
$USERR3
 40
0.0
  9
$USERR4
 40
0.0
  9
$USERR5
 40
0.0
  9
$WORLDVIEW
 70
     1
  9
$SHADEDGE
 70
     3
  9
$SHADEDIF
 70
    70
  9
$TILEMODE
 70
     1
  9
$MAXACTVP
 70
    16
  9
$PINSBASE
 10
0.0
 20
0.0
 30
0.0
  9
$PLIMCHECK
 70
     0
  9
$PEXTMIN
 10
1.000000E+20
 20
1.000000E+20
 30
1.000000E+20
  9
$PEXTMAX
 10
-1.000000E+20
 20
-1.000000E+20
 30
-1.000000E+20
  9
$PLIMMIN
 10
0.0
 20
0.0
  9
$PLIMMAX
 10
12.0
 20
9.0
  9
$UNITMODE
 70
     0
  9
$VISRETAIN
 70
     0
  9
$PLINEGEN
 70
     1
  9
$PSLTSCALE
 70
     0
  9
$TREEDEPTH
 70
  3020
  9
$CMLSTYLE
  2
Standard
  9
$CMLJUST
 70
     0
  9
$CMLSCALE
 40
1.0
  9
$PROXYGRAPHICS
 70
     0
  9
$MEASUREMENT
 70
     0
  9
$CELWEIGHT
370
     0
  9
$ENDCAPS
280
     0
  9
$JOINSTYLE
280
     0
  9
$LWDISPLAY
290
     0
  9
$INSUNITS
 70
     0
  9
$HYPERLINKBASE
  1

  9
$XEDIT
290
     1
  9
$CEPSNTYPE
380
     0
  9
$PSTYLEMODE
290
     1
  9
$FINGERPRINTGUID
  2

  9
$VERSIONGUID
  2

  9
$EXTNAMES
290
     1
  9
$PSVPSCALE
 40
0.0
  0
ENDSEC
  0
SECTION
  2
CLASSES
  0
CLASS
  1
LWPOLYLINE
  2
AcDbPolyline
  3
"AutoCAD"
 90
        0
280
     0
281
     1
  0
CLASS
  1
IMAGE
  2
AcDbRasterImage
  3
ISM
 90
      127
280
     0
281
     1
  0
CLASS
  1
OLE2FRAME
  2
AcDbOle2Frame
  3
""
 90
        0
280
     0
281
     1
  0
CLASS
  1
HATCH
  2
AcDbHatch
  3
"ACAD_SEDONA"
 90
        0
280
     0
281
     1
  0
CLASS
  1
DICTIONARYVAR
  2
AcDbDictionaryVar
  3
"AutoCAD"
 90
        0
280
     0
281
     0
  0
CLASS
  1
RASTERVARIABLES
  2
AcDbRasterVariables
  3
ISM
 90
        0
280
     0
281
     0
  0
CLASS
  1
IMAGEDEF
  2
AcDbRasterImageDef
  3
ISM
 90
        0
280
     0
281
     0
  0
CLASS
  1
IMAGEDEF_REACTOR
  2
AcDbRasterImageDefReactor
  3
ISM
 90
        1
280
     0
281
     0
  0
CLASS
  1
IDBUFFER
  2
AcDbIdBuffer
  3
"Acad"
 90
        0
280
     0
281
     0
  0
CLASS
  1
SPATIAL_FILTER
  2
AcDbSpatialFilter
  3
"Acad"
 90
        0
280
     0
281
     0
  0
CLASS
  1
XRECORD
  2
AcDbXrecord
  3
"<Built In>"
 90
        0
280
     0
281
     0
  0
CLASS
  1
SORTENTSTABLE
  2
AcDbSortentsTable
  3
"AutoCAD"
 90
        0
280
     0
281
     0
  0
CLASS
  1
LAYER_INDEX
  2
AcDbLayerIndex
  3
"Acad"
 90
        0
280
     0
281
     0
  0
CLASS
  1
SPATIAL_INDEX
  2
AcDbSpatialIndex
  3
"Acad"
 90
        0
280
     0
281
     0
  0
CLASS
  1
OBJECT_PTR
  2
CAseDLPNTableRecord
  3
"ASE-LPNTableRecord"
 90
        1
280
     0
281
     0
  0
CLASS
  1
LAYOUT
  2
AcDbLayout
  3
"AutoCAD 2000"
 90
        1
280
     0
281
     0
  0
CLASS
  1
PLOTSETTINGS
  2
AcDbPlotSettings
  3
"AutoCAD 2000"
 90
        1
280
     0
281
     0
  0
CLASS
  1
ACDBDICTIONARYWDFLT
  2
AcDbDictionaryWithDefault
  3
"AutoCAD 2000"
 90
        1
280
     0
281
     0
  0
CLASS
  1
ACDBPLACEHOLDER
  2
AcDbPlaceHolder
  3
"AutoCAD 2000"
 90
        1
280
     0
281
     0
  0
CLASS
  1
VBA_PROJECT
  2
AcDbVbaProject
  3
"acadvba"
 90
        1
280
     0
281
     0
  0
CLASS
  1
WIPEOUT
  2
AcDbWipeout
  3
WipeOut|AutoCAD Express Tool|expresstools@autodesk.com
 90
      127
280
     0
281
     1
  0
CLASS
  1
WIPEOUTVARIABLES
  2
AcDbWipeoutVariables
  3
WipeOut|AutoCAD Express Tool|expresstools@autodesk.com
 90
        0
280
     0
281
     0
  0
CLASS
  1
RTEXT
  2
RText
  3
RText|AutoCAD Express Tool|expresstools@autodesk.com
 90
        0
280
     0
281
     1
  0
CLASS
  1
ARCALIGNEDTEXT
  2
AcDbArcAlignedText
  3
ATEXT|AutoCAD Express Tool|expresstools@autodesk.com
 90
        0
280
     0
281
     1
  0
ENDSEC
  0
SECTION
  2
TABLES
  0
TABLE
  2
VPORT
  5
7
100
AcDbSymbolTable
 70
     1
  0
VPORT
  5
15
100
AcDbSymbolTableRecord
100
AcDbViewportTableRecord
  2
*ACTIVE
 70
     0
 10
0.0
 20
0.0
 11
1.0
 21
1.0
 12
6.591288
 22
4.579184
 13
0.0
 23
0.0
 14
1.0
 24
1.0
 15
0.0
 25
0.0
 16
0.0
 26
0.0
 36
1.0
 17
0.0
 27
0.0
 37
0.0
 40
9.158369
 41
0.688564
 42
50.0
 43
0.0
 44
0.0
 50
0.0
 51
0.0
 71
     0
 72
   100
 73
     1
 74
     1
 75
     0
 76
     0
 77
     0
 78
     0
281
     0
 65
     0
110
0.0
120
0.0
130
0.0
111
1.0
121
0.0
131
0.0
112
0.0
122
1.0
132
0.0
345
0
346
0
 79
     0
146
0.0
  0
ENDTAB
  0
TABLE
  2
LTYPE
  5
4
100
AcDbSymbolTable
 70
     4
  0
LTYPE
  5
11
100
AcDbSymbolTableRecord
100
AcDbLinetypeTableRecord
  2
ByBlock
 70
    64
  3

 72
    65
 73
     0
 40
0.0
  0
LTYPE
  5
12
100
AcDbSymbolTableRecord
100
AcDbLinetypeTableRecord
  2
ByLayer
 70
    64
  3

 72
    65
 73
     0
 40
0.0
  0
LTYPE
  5
13
100
AcDbSymbolTableRecord
100
AcDbLinetypeTableRecord
  2
Continuous
 70
    64
  3
Solid line
 72
    65
 73
     0
 40
0.0
  0
LTYPE
  5
221
100
AcDbSymbolTableRecord
100
AcDbLinetypeTableRecord
  2
AI9-LType1
 70
    64
  3
Illustrator Dash Style No.1
 72
    65
 73
     1
 40
1.058333
 49
1.058333
 74
     0
  0
ENDTAB
  0
TABLE
  2
LAYER
  5
2
100
AcDbSymbolTable
 70
     4
  0
LAYER
  5
14
100
AcDbSymbolTableRecord
100
AcDbLayerTableRecord
  2
0
 70
     0
 62
     7
  6
Continuous
290
     1
370
    -3
390
1D
  0
LAYER
  5
28
100
AcDbSymbolTableRecord
100
AcDbLayerTableRecord
  2
レイヤー_1
 70
     0
 62
   160
  6
Continuous
290
     1
370
    -3
390
1F
  0
LAYER
  5
31
100
AcDbSymbolTableRecord
100
AcDbLayerTableRecord
  2
0
 70
     0
 62
     7
  6
Continuous
290
     1
370
    -3
390
1F
  0
LAYER
  5
32
100
AcDbSymbolTableRecord
100
AcDbLayerTableRecord
  2
LAYER_1
 70
     0
 62
     7
  6
Continuous
290
     1
370
    -3
390
1F
  0
ENDTAB
  0
TABLE
  2
STYLE
  5
3
100
AcDbSymbolTable
 70
     5
  0
STYLE
  5
17
100
AcDbSymbolTableRecord
100
AcDbTextStyleTableRecord
  2
Standard
 70
     0
 40
0.0
 41
1.0
 50
0.0
 71
     0
 42
0.0
  3
txt
  4

  0
STYLE
  5
24
100
AcDbSymbolTableRecord
100
AcDbTextStyleTableRecord
  2
STD
 70
     0
 40
0.0
 41
1.0
 50
0.0
 71
     0
 42
0.0
  3
txt
  4

  0
STYLE
  5
25
100
AcDbSymbolTableRecord
100
AcDbTextStyleTableRecord
  2
TATESTD
 70
     4
 40
0.0
 41
1.0
 50
0.0
 71
     0
 42
0.0
  3
txt
  4

  0
STYLE
  5
26
100
AcDbSymbolTableRecord
100
AcDbTextStyleTableRecord
  2
KANJISTD
 70
     0
 40
0.0
 41
1.0
 50
0.0
 71
     0
 42
0.0
  3
txt
  4
extfont
  0
STYLE
  5
27
100
AcDbSymbolTableRecord
100
AcDbTextStyleTableRecord
  2
KANJITATE
 70
     4
 40
0.0
 41
1.0
 50
0.0
 71
     0
 42
0.0
  3
txt
  4
extfont
  0
ENDTAB
  0
TABLE
  2
VIEW
  5
5
100
AcDbSymbolTable
 70
     0
  0
ENDTAB
  0
TABLE
  2
UCS
  5
6
100
AcDbSymbolTable
 70
     0
  0
ENDTAB
  0
TABLE
  2
APPID
  5
8
100
AcDbSymbolTable
 70
     1
  0
APPID
  5
16
100
AcDbSymbolTableRecord
100
AcDbRegAppTableRecord
  2
ACAD
 70
     0
  0
ENDTAB
  0
TABLE
  2
DIMSTYLE
  5
9
100
AcDbSymbolTable
 70
     1
100
AcDbDimStyleTable
 71
     0
  0
DIMSTYLE
105
18
100
AcDbSymbolTableRecord
100
AcDbDimStyleTableRecord
  2
Standard
 70
     0
  3

  4

 40
1.0
 41
0.18
 42
0.0625
 43
0.38
 44
0.18
 45
0.0
 46
0.0
 47
0.0
 48
0.0
 71
     0
 72
     0
 73
     1
 74
     1
 75
     0
 76
     0
 77
     0
 78
     0
 79
     0
140
0.18
141
0.09
142
0.0
143
25.4
144
1.0
145
0.0
146
1.0
147
0.09
148
0.0
170
     0
171
     2
172
     0
173
     0
174
     0
175
     0
176
     0
177
     0
178
     0
179
     0
271
     4
272
     4
273
     2
274
     2
275
     0
276
     0
277
     2
278
    46
279
     0
280
     0
281
     0
282
     0
283
     1
284
     0
285
     0
286
     0
288
     0
340
17
341
0
342
0
343
0
344
0
371
    -2
372
    -2
  0
ENDTAB
  0
TABLE
  2
BLOCK_RECORD
  5
1
100
AcDbSymbolTable
 70
     1
  0
BLOCK_RECORD
  5
A
100
AcDbSymbolTableRecord
100
AcDbBlockTableRecord
  2
*MODEL_SPACE
340
20
  0
BLOCK_RECORD
  5
B
100
AcDbSymbolTableRecord
100
AcDbBlockTableRecord
  2
*PAPER_SPACE
340
21
  0
BLOCK_RECORD
  5
102
100
AcDbSymbolTableRecord
100
AcDbBlockTableRecord
  2
AI9-BLK1
340
0
  0
ENDTAB
  0
ENDSEC
  0
SECTION
  2
BLOCKS
  0
BLOCK
  5
D
100
AcDbEntity
  8
0
100
AcDbBlockBegin
  2
*MODEL_SPACE
 70
     0
 10
0.0
 20
0.0
 30
0.0
  3
*MODEL_SPACE
  1

  0
ENDBLK
  5
E
100
AcDbEntity
  8
0
100
AcDbBlockEnd
  0
BLOCK
  5
F
100
AcDbEntity
 67
     1
  8
0
100
AcDbBlockBegin
  2
*PAPER_SPACE
 70
     0
 10
0.0
 20
0.0
 30
0.0
  3
*PAPER_SPACE
  1

  0
ENDBLK
  5
10
100
AcDbEntity
 67
     1
  8
0
100
AcDbBlockEnd
  0
BLOCK
  5
104
100
AcDbEntity
  8
LAYER_1
 62
     7
100
AcDbBlockBegin
  2
AI9-BLK1
 70
     0
 10
0.0
 20
0.0
 30
0.0
  3
AI9-BLK1
  1

  0
SPLINE
  5
110
100
AcDbEntity
  8
LAYER_1
 62
     7
100
AcDbSpline
210
0.0
220
0.0
230
1.0
 70
     8
 71
     3
 72
    17
 73
    13
 74
     0
 42
0.00000001
 43
0.00000001
 40
0.0
 40
0.0
 40
0.0
 40
0.0
 40
1.0
 40
1.0
 40
1.0
 40
2.0
 40
2.0
 40
2.0
 40
3.0
 40
3.0
 40
3.0
 40
4.0
 40
4.0
 40
4.0
 40
4.0
 10
53.431191677517354
 20
4.0235270182291663
 30
0.0
 10
53.670625813802076
 20
4.1792453342013882
 30
0.0
 10
53.808085123697914
 20
4.4517523871527773
 30
0.0
 10
53.790859646267357
 20
4.7370062934027777
 30
0.0
 10
53.713344997829857
 20
5.110799153645833
 30
0.0
 10
53.374347601996526
 20
5.3726264105902777
 30
0.0
 10
52.992975531684024
 20
5.3529893663194441
 30
0.0
 10
52.618493652343744
 20
5.2758192274305546
 30
0.0
 10
52.356666395399301
 20
4.9371663411458329
 30
0.0
 10
52.375614420572909
 20
4.5554497612847218
 30
0.0
 10
52.548213704427077
 20
4.1420383029513888
 30
0.0
 10
52.99607611762152
 20
3.9160400390624996
 30
0.0
 10
53.431191677517354
 20
4.0235270182291663
 30
0.0
  0
SPLINE
  5
10F
100
AcDbEntity
  8
LAYER_1
 62
     7
100
AcDbSpline
210
0.0
220
0.0
230
1.0
 70
     8
 71
     3
 72
    17
 73
    13
 74
     0
 42
0.00000001
 43
0.00000001
 40
0.0
 40
0.0
 40
0.0
 40
0.0
 40
1.0
 40
1.0
 40
1.0
 40
2.0
 40
2.0
 40
2.0
 40
3.0
 40
3.0
 40
3.0
 40
4.0
 40
4.0
 40
4.0
 40
4.0
 10
44.274816894531249
 20
4.0235270182291663
 30
0.0
 10
44.51425103081597
 20
4.1792453342013882
 30
0.0
 10
44.651710340711801
 20
4.4517523871527773
 30
0.0
 10
44.634484863281244
 20
4.7370062934027777
 30
0.0
 10
44.556970214843744
 20
5.110799153645833
 30
0.0
 10
44.218317328559024
 20
5.3726264105902777
 30
0.0
 10
43.836945258246523
 20
5.3529893663194441
 30
0.0
 10
43.462807888454854
 20
5.2754747178819441
 30
0.0
 10
43.201325141059023
 20
4.9368218315972214
 30
0.0
 10
43.220617675781249
 20
4.5554497612847218
 30
0.0
 10
43.392872450086799
 20
4.1423828124999993
 30
0.0
 10
43.840390353732637
 20
3.9163845486111106
 30
0.0
 10
44.274816894531249
 20
4.0235270182291663
 30
0.0
  0
SPLINE
  5
10E
100
AcDbEntity
  8
LAYER_1
 62
     7
100
AcDbSpline
210
0.0
220
0.0
230
1.0
 70
     8
 71
     3
 72
    17
 73
    13
 74
     0
 42
0.00000001
 43
0.00000001
 40
0.0
 40
0.0
 40
0.0
 40
0.0
 40
1.0
 40
1.0
 40
1.0
 40
2.0
 40
2.0
 40
2.0
 40
3.0
 40
3.0
 40
3.0
 40
4.0
 40
4.0
 40
4.0
 40
4.0
 10
35.119820149739581
 20
4.0235270182291663
 30
0.0
 10
35.359943305121526
 20
4.1789008246527777
 30
0.0
 10
35.497747124565969
 20
4.4514078776041659
 30
0.0
 10
35.480866156684023
 20
4.7370062934027777
 30
0.0
 10
35.403006998697911
 20
5.111488172743055
 30
0.0
 10
35.063665093315969
 20
5.3729709201388882
 30
0.0
 10
34.681948513454856
 20
5.3529893663194441
 30
0.0
 10
34.307811143663194
 20
5.2754747178819441
 30
0.0
 10
34.046328396267356
 20
4.9368218315972214
 30
0.0
 10
34.065965440538193
 20
4.5554497612847218
 30
0.0
 10
34.237875705295139
 20
4.1423828124999993
 30
0.0
 10
34.68539360894097
 20
3.9163845486111106
 30
0.0
 10
35.119820149739581
 20
4.0235270182291663
 30
0.0
  0
SPLINE
  5
10D
100
AcDbEntity
  8
LAYER_1
 62
     7
100
AcDbSpline
210
0.0
220
0.0
230
1.0
 70
     8
 71
     3
 72
    17
 73
    13
 74
     0
 42
0.00000001
 43
0.00000001
 40
0.0
 40
0.0
 40
0.0
 40
0.0
 40
1.0
 40
1.0
 40
1.0
 40
2.0
 40
2.0
 40
2.0
 40
3.0
 40
3.0
 40
3.0
 40
4.0
 40
4.0
 40
4.0
 40
4.0
 10
25.965167914496526
 20
4.0235270182291663
 30
0.0
 10
26.204602050781247
 20
4.1792453342013882
 30
0.0
 10
26.342061360677082
 20
4.4517523871527773
 30
0.0
 10
26.324835883246525
 20
4.7370062934027777
 30
0.0
 10
26.247321234809025
 20
5.110799153645833
 30
0.0
 10
25.908668348524301
 20
5.3726264105902777
 30
0.0
 10
25.526951768663192
 20
5.3529893663194441
 30
0.0
 10
25.152814398871527
 20
5.2754747178819441
 30
0.0
 10
24.891331651475692
 20
4.9368218315972214
 30
0.0
 10
24.910968695746526
 20
4.5554497612847218
 30
0.0
 10
25.082878960503471
 20
4.1423828124999993
 30
0.0
 10
25.530741373697914
 20
3.9163845486111106
 30
0.0
 10
25.965167914496526
 20
4.0235270182291663
 30
0.0
  0
SPLINE
  5
10C
100
AcDbEntity
  8
LAYER_1
 62
     7
100
AcDbSpline
210
0.0
220
0.0
230
1.0
 70
     8
 71
     3
 72
    17
 73
    13
 74
     0
 42
0.00000001
 43
0.00000001
 40
0.0
 40
0.0
 40
0.0
 40
0.0
 40
1.0
 40
1.0
 40
1.0
 40
2.0
 40
2.0
 40
2.0
 40
3.0
 40
3.0
 40
3.0
 40
4.0
 40
4.0
 40
4.0
 40
4.0
 10
16.810171169704859
 20
4.0235270182291663
 30
0.0
 10
17.04960530598958
 20
4.1792453342013882
 30
0.0
 10
17.187064615885415
 20
4.4517523871527773
 30
0.0
 10
17.169839138454858
 20
4.7370062934027777
 30
0.0
 10
17.092324490017358
 20
5.110799153645833
 30
0.0
 10
16.753671603732638
 20
5.3726264105902777
 30
0.0
 10
16.372299533420136
 20
5.3529893663194441
 30
0.0
 10
15.998162163628471
 20
5.2754747178819441
 30
0.0
 10
15.736679416232638
 20
4.9368218315972214
 30
0.0
 10
15.75597195095486
 20
4.5554497612847218
 30
0.0
 10
15.928226725260416
 20
4.1423828124999993
 30
0.0
 10
16.375744628906247
 20
3.9163845486111106
 30
0.0
 10
16.810171169704859
 20
4.0235270182291663
 30
0.0
  0
SPLINE
  5
10B
100
AcDbEntity
  8
LAYER_1
 62
     7
100
AcDbSpline
210
0.0
220
0.0
230
1.0
 70
     8
 71
     3
 72
    17
 73
    13
 74
     0
 42
0.00000001
 43
0.00000001
 40
0.0
 40
0.0
 40
0.0
 40
0.0
 40
1.0
 40
1.0
 40
1.0
 40
2.0
 40
2.0
 40
2.0
 40
3.0
 40
3.0
 40
3.0
 40
4.0
 40
4.0
 40
4.0
 40
4.0
 10
2.1926310221354166
 20
4.0524658203124995
 30
0.0
 10
2.4324096679687499
 20
4.2078396267361109
 30
0.0
 10
2.5702134874131941
 20
4.4803466796875
 30
0.0
 10
2.5533325195312497
 20
4.7656005859374995
 30
0.0
 10
2.4754733615451388
 20
5.1400824652777777
 30
0.0
 10
2.1364759657118055
 20
5.4019097222222214
 30
0.0
 10
1.7544148763020833
 20
5.3819281684027773
 30
0.0
 10
1.3802775065104165
 20
5.3044135199652773
 30
0.0
 10
1.1187947591145833
 20
4.9657606336805555
 30
0.0
 10
1.1384318033854166
 20
4.5840440538194445
 30
0.0
 10
1.310342068142361
 20
4.170977105034722
 30
0.0
 10
1.7582044813368054
 20
3.9453233506944443
 30
0.0
 10
2.1926310221354166
 20
4.0524658203124995
 30
0.0
  0
SPLINE
  5
10A
100
AcDbEntity
  8
LAYER_1
 62
     7
100
AcDbSpline
210
0.0
220
0.0
230
1.0
 70
     8
 71
     3
 72
    17
 73
    13
 74
     0
 42
0.00000001
 43
0.00000001
 40
0.0
 40
0.0
 40
0.0
 40
0.0
 40
1.0
 40
1.0
 40
1.0
 40
2.0
 40
2.0
 40
2.0
 40
3.0
 40
3.0
 40
3.0
 40
4.0
 40
4.0
 40
4.0
 40
4.0
 10
-6.9623657226562496
 20
4.0524658203124995
 30
0.0
 10
-6.7229315863715273
 20
4.2078396267361109
 30
0.0
 10
-6.5854722764756941
 20
4.4803466796875
 30
0.0
 10
-6.6026977539062495
 20
4.7656005859374995
 30
0.0
 10
-6.6802124023437495
 20
5.1397379557291663
 30
0.0
 10
-7.0188652886284713
 20
5.4015652126736109
 30
0.0
 10
-7.4005818684895823
 20
5.3819281684027773
 30
0.0
 10
-7.7743747287326386
 20
5.3044135199652773
 30
0.0
 10
-8.0362019856770832
 20
4.9657606336805555
 30
0.0
 10
-8.0165649414062496
 20
4.5840440538194445
 30
0.0
 10
-7.8443101671006934
 20
4.170977105034722
 30
0.0
 10
-7.3967922634548602
 20
3.9453233506944443
 30
0.0
 10
-6.9623657226562496
 20
4.0524658203124995
 30
0.0
  0
SPLINE
  5
109
100
AcDbEntity
  8
LAYER_1
 62
     7
100
AcDbSpline
210
0.0
220
0.0
230
1.0
 70
     8
 71
     3
 72
    17
 73
    13
 74
     0
 42
0.00000001
 43
0.00000001
 40
0.0
 40
0.0
 40
0.0
 40
0.0
 40
1.0
 40
1.0
 40
1.0
 40
2.0
 40
2.0
 40
2.0
 40
3.0
 40
3.0
 40
3.0
 40
4.0
 40
4.0
 40
4.0
 40
4.0
 10
-25.272014702690971
 20
4.0524658203124995
 30
0.0
 10
-25.032580566406249
 20
4.2078396267361109
 30
0.0
 10
-24.895121256510414
 20
4.4803466796875
 30
0.0
 10
-24.912346733940971
 20
4.7656005859374995
 30
0.0
 10
-24.989861382378471
 20
5.1397379557291663
 30
0.0
 10
-25.328858778211803
 20
5.4015652126736109
 30
0.0
 10
-25.710230848524304
 20
5.3819281684027773
 30
0.0
 10
-26.084368218315969
 20
5.3044135199652773
 30
0.0
 10
-26.345850965711804
 20
4.9657606336805555
 30
0.0
 10
-26.326213921440971
 20
4.5840440538194445
 30
0.0
 10
-26.153959147135414
 20
4.170977105034722
 30
0.0
 10
-25.706441243489582
 20
3.9453233506944443
 30
0.0
 10
-25.272014702690971
 20
4.0524658203124995
 30
0.0
  0
SPLINE
  5
108
100
AcDbEntity
  8
LAYER_1
 62
     7
100
AcDbSpline
210
0.0
220
0.0
230
1.0
 70
     8
 71
     3
 72
    17
 73
    13
 74
     0
 42
0.00000001
 43
0.00000001
 40
0.0
 40
0.0
 40
0.0
 40
0.0
 40
1.0
 40
1.0
 40
1.0
 40
2.0
 40
2.0
 40
2.0
 40
3.0
 40
3.0
 40
3.0
 40
4.0
 40
4.0
 40
4.0
 40
4.0
 10
-34.427011447482634
 20
4.0524658203124995
 30
0.0
 10
-34.187577311197913
 20
4.2078396267361109
 30
0.0
 10
-34.050118001302081
 20
4.4803466796875
 30
0.0
 10
-34.067343478732639
 20
4.7656005859374995
 30
0.0
 10
-34.144858127170139
 20
5.1397379557291663
 30
0.0
 10
-34.483511013454859
 20
5.4015652126736109
 30
0.0
 10
-34.865055338541666
 20
5.3819281684027773
 30
0.0
 10
-35.239192708333327
 20
5.3044135199652773
 30
0.0
 10
-35.500675455729166
 20
4.9657606336805555
 30
0.0
 10
-35.481210666232634
 20
4.5840440538194445
 30
0.0
 10
-35.308955891927077
 20
4.170977105034722
 30
0.0
 10
-34.861437988281246
 20
3.9453233506944443
 30
0.0
 10
-34.427011447482634
 20
4.0524658203124995
 30
0.0
  0
SPLINE
  5
107
100
AcDbEntity
  8
LAYER_1
 62
     7
100
AcDbSpline
210
0.0
220
0.0
230
1.0
 70
     8
 71
     3
 72
    17
 73
    13
 74
     0
 42
0.00000001
 43
0.00000001
 40
0.0
 40
0.0
 40
0.0
 40
0.0
 40
1.0
 40
1.0
 40
1.0
 40
2.0
 40
2.0
 40
2.0
 40
3.0
 40
3.0
 40
3.0
 40
4.0
 40
4.0
 40
4.0
 40
4.0
 10
-43.581835937499996
 20
4.0524658203124995
 30
0.0
 10
-43.342401801215274
 20
4.2078396267361109
 30
0.0
 10
-43.204942491319443
 20
4.4803466796875
 30
0.0
 10
-43.222167968749993
 20
4.7656005859374995
 30
0.0
 10
-43.299682617187493
 20
5.1397379557291663
 30
0.0
 10
-43.638507758246526
 20
5.4015652126736109
 30
0.0
 10
-44.020052083333333
 20
5.3819281684027773
 30
0.0
 10
-44.394017198350689
 20
5.3044135199652773
 30
0.0
 10
-44.655499945746527
 20
4.9657606336805555
 30
0.0
 10
-44.636035156249996
 20
4.5840440538194445
 30
0.0
 10
-44.463780381944439
 20
4.170977105034722
 30
0.0
 10
-44.016262478298607
 20
3.9453233506944443
 30
0.0
 10
-43.581835937499996
 20
4.0524658203124995
 30
0.0
  0
SPLINE
  5
106
100
AcDbEntity
  8
LAYER_1
 62
     7
100
AcDbSpline
210
0.0
220
0.0
230
1.0
 70
     8
 71
     3
 72
    17
 73
    13
 74
     0
 42
0.00000001
 43
0.00000001
 40
0.0
 40
0.0
 40
0.0
 40
0.0
 40
1.0
 40
1.0
 40
1.0
 40
2.0
 40
2.0
 40
2.0
 40
3.0
 40
3.0
 40
3.0
 40
4.0
 40
4.0
 40
4.0
 40
4.0
 10
-52.736832682291663
 20
4.0524658203124995
 30
0.0
 10
-52.497226291232636
 20
4.2078396267361109
 30
0.0
 10
-52.359766981336804
 20
4.4803466796875
 30
0.0
 10
-52.376992458767354
 20
4.7656005859374995
 30
0.0
 10
-52.454507107204854
 20
5.1397379557291663
 30
0.0
 10
-52.793332248263887
 20
5.4015652126736109
 30
0.0
 10
-53.174876573350687
 20
5.3819281684027773
 30
0.0
 10
-53.54884168836805
 20
5.3044135199652773
 30
0.0
 10
-53.810496690538187
 20
4.9657606336805555
 30
0.0
 10
-53.790859646267357
 20
4.5840440538194445
 30
0.0
 10
-53.618777126736106
 20
4.170977105034722
 30
0.0
 10
-53.171259223090274
 20
3.9453233506944443
 30
0.0
 10
-52.736832682291663
 20
4.0524658203124995
 30
0.0
  0
SPLINE
  5
105
100
AcDbEntity
  8
LAYER_1
 62
     7
100
AcDbSpline
210
0.0
220
0.0
230
1.0
 70
     8
 71
     3
 72
    17
 73
    13
 74
     0
 42
0.00000001
 43
0.00000001
 40
0.0
 40
0.0
 40
0.0
 40
0.0
 40
1.0
 40
1.0
 40
1.0
 40
2.0
 40
2.0
 40
2.0
 40
3.0
 40
3.0
 40
3.0
 40
4.0
 40
4.0
 40
4.0
 40
4.0
 10
-1.0195760091145833
 20
-5.3819281684027773
 30
0.0
 10
-0.7797973632812499
 20
-5.2262098524305554
 30
0.0
 10
-0.6426825629340277
 20
-4.9537027994791663
 30
0.0
 10
-0.6599080403645833
 20
-4.6684488932291659
 30
0.0
 10
-0.7374226888020833
 20
-4.2946560329861105
 30
0.0
 10
-1.0764200846354166
 20
-4.0328287760416659
 30
0.0
 10
-1.4577921549479165
 20
-4.0524658203124995
 30
0.0
 10
-1.8315850151909721
 20
-4.1299804687499995
 30
0.0
 10
-2.0930677625868053
 20
-4.4686333550347221
 30
0.0
 10
-2.0734307183159721
 20
-4.8500054253472218
 30
0.0
 10
-1.9015204535590275
 20
-5.2630723741319443
 30
0.0
 10
-1.4540025499131943
 20
-5.4890706380208325
 30
0.0
 10
-1.0195760091145833
 20
-5.3819281684027773
 30
0.0
  0
ENDBLK
  5
111
100
AcDbEntity
  8
LAYER_1
100
AcDbBlockEnd
  0
ENDSEC
  0
SECTION
  2
ENTITIES
  0
MTEXT
  5
23B
100
AcDbEntity
  8
LAYER_1
 62
     7
100
AcDbMText
 10
22.365263
 20
125.18788
 30
0.0
 40
2.58877
 41
0.0
 71
     1
 72
     2
  1
\W0.50;\fMS Gothic|b0|i0|c128;水上400以上
  7
KANJISTD
210
0.0
220
0.0
230
1.0
 11
0.0
 21
1.0
 31
0.0
 73
     1
 44
1.0
  0
POLYLINE
  5
235
100
AcDbEntity
  8
LAYER_1
 62
     7
100
AcDb2dPolyline
 66
     1
 10
0.0
 20
0.0
 30
0.0
  0
VERTEX
  5
236
100
AcDbEntity
  8
LAYER_1
 62
     7
100
AcDbVertex
100
AcDb2dVertex
 10
38.906152
 20
178.30953
 30
0.0
  0
VERTEX
  5
237
100
AcDbEntity
  8
LAYER_1
 62
     7
100
AcDbVertex
100
AcDb2dVertex
 10
25.526952
 20
178.30953
 30
0.0
  0
VERTEX
  5
238
100
AcDbEntity
  8
LAYER_1
 62
     7
100
AcDbVertex
100
AcDb2dVertex
 10
25.526952
 20
92.694773
 30
0.0
  0
VERTEX
  5
239
100
AcDbEntity
  8
LAYER_1
 62
     7
100
AcDbVertex
100
AcDb2dVertex
 10
62.735017
 20
92.694773
 30
0.0
  0
SEQEND
  5
23A
100
AcDbEntity
  8
LAYER_1
 62
     7
  0
POLYLINE
  5
230
100
AcDbEntity
  8
LAYER_1
 62
     7
100
AcDb2dPolyline
 66
     1
 10
0.0
 20
0.0
 30
0.0
  0
VERTEX
  5
231
100
AcDbEntity
  8
LAYER_1
 62
     7
100
AcDbVertex
100
AcDb2dVertex
 10
26.034414
 20
176.414727
 30
0.0
  0
VERTEX
  5
232
100
AcDbEntity
  8
LAYER_1
 62
     7
100
AcDbVertex
100
AcDb2dVertex
 10
25.526952
 20
178.30953
 30
0.0
  0
VERTEX
  5
233
100
AcDbEntity
  8
LAYER_1
 62
     7
100
AcDbVertex
100
AcDb2dVertex
 10
25.018111
 20
176.414727
 30
0.0
  0
SEQEND
  5
234
100
AcDbEntity
  8
LAYER_1
 62
     7
  0
POLYLINE
  5
22B
100
AcDbEntity
  8
LAYER_1
 62
     7
100
AcDb2dPolyline
 66
     1
 10
0.0
 20
0.0
 30
0.0
  0
VERTEX
  5
22C
100
AcDbEntity
  8
LAYER_1
 62
     7
100
AcDbVertex
100
AcDb2dVertex
 10
25.018111
 20
94.589575
 30
0.0
  0
VERTEX
  5
22D
100
AcDbEntity
  8
LAYER_1
 62
     7
100
AcDbVertex
100
AcDb2dVertex
 10
25.526952
 20
92.694773
 30
0.0
  0
VERTEX
  5
22E
100
AcDbEntity
  8
LAYER_1
 62
     7
100
AcDbVertex
100
AcDb2dVertex
 10
26.034414
 20
94.589575
 30
0.0
  0
SEQEND
  5
22F
100
AcDbEntity
  8
LAYER_1
 62
     7
  0
MTEXT
  5
22A
100
AcDbEntity
  8
LAYER_1
 62
     7
100
AcDbMText
 10
16.722493
 20
227.432907
 30
0.0
 40
4.068074
 41
0.0
 71
     1
 72
     2
  1
\W0.50;\fMS Gothic|b0|i0|c128;金属笠木タイプ　取付金具分離方式　
  7
KANJISTD
210
0.0
220
0.0
230
1.0
 11
1.000001
 21
0.0
 31
0.0
 73
     1
 44
1.0
  0
MTEXT
  5
229
100
AcDbEntity
  8
LAYER_1
 62
     7
100
AcDbMText
 10
4.938889
 20
71.787646
 30
0.0
 40
2.58877
 41
0.0
 71
     1
 72
     2
  1
\W0.50;\fMS Gothic|b0|i0|c128;(数字)は、参考寸法。
  7
KANJISTD
210
0.0
220
0.0
230
1.0
 11
1.000001
 21
0.0
 31
0.0
 73
     1
 44
1.0
  0
SPLINE
  5
228
100
AcDbEntity
  8
LAYER_1
 62
     7
100
AcDbSpline
210
0.0
220
0.0
230
1.0
 70
     8
 71
     3
 72
    17
 73
    13
 74
     0
 42
0.00000001
 43
0.00000001
 40
0.0
 40
0.0
 40
0.0
 40
0.0
 40
1.0
 40
1.0
 40
1.0
 40
2.0
 40
2.0
 40
2.0
 40
3.0
 40
3.0
 40
3.0
 40
4.0
 40
4.0
 40
4.0
 40
4.0
 10
72.374910481770826
 20
178.43699815538193
 30
0.0
 10
72.450702582465269
 20
178.50521104600693
 30
0.0
 10
72.494455295138877
 20
178.60201822916665
 30
0.0
 10
72.495488823784711
 20
178.70382080078124
 30
0.0
 10
72.493766276041654
 20
178.90019124348956
 30
0.0
 10
72.33477511935763
 20
179.05883789062497
 30
0.0
 10
72.138404676649301
 20
179.06021592881942
 30
0.0
 10
71.942206488715271
 20
179.05849338107637
 30
0.0
 10
71.78390435112847
 20
178.89984673394096
 30
0.0
 10
71.782526312934024
 20
178.70382080078124
 30
0.0
 10
71.873993598090266
 20
178.46783175998263
 30
0.0
 10
72.137887912326377
 20
178.34914822048609
 30
0.0
 10
72.374910481770826
 20
178.43699815538193
 30
0.0
  0
POLYLINE
  5
222
100
AcDbEntity
  8
LAYER_1
  6
AI9-LType1
 62
     7
100
AcDb2dPolyline
 66
     1
 10
0.0
 20
0.0
 30
0.0
  0
VERTEX
  5
223
100
AcDbEntity
  8
LAYER_1
  6
AI9-LType1
 62
     7
100
AcDbVertex
100
AcDb2dVertex
 10
77.671745
 20
178.577041
 30
0.0
  0
VERTEX
  5
224
100
AcDbEntity
  8
LAYER_1
  6
AI9-LType1
 62
     7
100
AcDbVertex
100
AcDb2dVertex
 10
67.587089
 20
178.577041
 30
0.0
  0
VERTEX
  5
225
100
AcDbEntity
  8
LAYER_1
  6
AI9-LType1
 62
     7
100
AcDbVertex
100
AcDb2dVertex
 10
67.587089
 20
180.64806
 30
0.0
  0
VERTEX
  5
226
100
AcDbEntity
  8
LAYER_1
  6
AI9-LType1
 62
     7
100
AcDbVertex
100
AcDb2dVertex
 10
55.222641
 20
180.64806
 30
0.0
  0
SEQEND
  5
227
100
AcDbEntity
  8
LAYER_1
  6
AI9-LType1
 62
     7
  0
POLYLINE
  5
217
100
AcDbEntity
  8
LAYER_1
 62
     7
100
AcDb2dPolyline
 66
     1
 10
0.0
 20
0.0
 30
0.0
 70
     1
  0
VERTEX
  5
218
100
AcDbEntity
  8
LAYER_1
 62
     7
100
AcDbVertex
100
AcDb2dVertex
 10
77.707057
 20
172.506094
 30
0.0
  0
VERTEX
  5
219
100
AcDbEntity
  8
LAYER_1
 62
     7
100
AcDbVertex
100
AcDb2dVertex
 10
77.705679
 20
177.992753
 30
0.0
  0
VERTEX
  5
21A
100
AcDbEntity
  8
LAYER_1
 62
     7
100
AcDbVertex
100
AcDb2dVertex
 10
73.539008
 20
177.992753
 30
0.0
  0
VERTEX
  5
21B
100
AcDbEntity
  8
LAYER_1
 62
     7
100
AcDbVertex
100
AcDb2dVertex
 10
73.539008
 20
172.506094
 30
0.0
  0
VERTEX
  5
21C
100
AcDbEntity
  8
LAYER_1
 62
     7
100
AcDbVertex
100
AcDb2dVertex
 10
73.915729
 20
172.506094
 30
0.0
  0
VERTEX
  5
21D
100
AcDbEntity
  8
LAYER_1
 62
     7
100
AcDbVertex
100
AcDb2dVertex
 10
73.915729
 20
177.617065
 30
0.0
  0
VERTEX
  5
21E
100
AcDbEntity
  8
LAYER_1
 62
     7
100
AcDbVertex
100
AcDb2dVertex
 10
77.330336
 20
177.617065
 30
0.0
  0
VERTEX
  5
21F
100
AcDbEntity
  8
LAYER_1
 62
     7
100
AcDbVertex
100
AcDb2dVertex
 10
77.330336
 20
172.506094
 30
0.0
  0
SEQEND
  5
220
100
AcDbEntity
  8
LAYER_1
 62
     7
  0
MTEXT
  5
216
100
AcDbEntity
  8
LAYER_1
 62
     7
100
AcDbMText
 10
62.168643
 20
208.578952
 30
0.0
 40
2.58877
 41
0.0
 71
     1
 72
     2
  1
\W0.50;\fMS Gothic|b0|i0|c128;ゴムアスファルト系シール材
  7
KANJISTD
210
0.0
220
0.0
230
1.0
 11
1.000001
 21
0.0
 31
0.0
 73
     1
 44
1.0
  0
MTEXT
  5
215
100
AcDbEntity
  8
LAYER_1
 62
     7
100
AcDbMText
 10
67.310965
 20
204.412109
 30
0.0
 40
2.58877
 41
0.0
 71
     1
 72
     2
  1
\W0.50;\fMS Gothic|b0|i0|c128;押え金物
  7
KANJISTD
210
0.0
220
0.0
230
1.0
 11
1.000001
 21
0.0
 31
0.0
 73
     1
 44
1.0
  0
SPLINE
  5
214
100
AcDbEntity
  8
LAYER_1
 62
     7
100
AcDbSpline
210
0.0
220
0.0
230
1.0
 70
     8
 71
     3
 72
    17
 73
    13
 74
     0
 42
0.00000001
 43
0.00000001
 40
0.0
 40
0.0
 40
0.0
 40
0.0
 40
1.0
 40
1.0
 40
1.0
 40
2.0
 40
2.0
 40
2.0
 40
3.0
 40
3.0
 40
3.0
 40
4.0
 40
4.0
 40
4.0
 40
4.0
 10
52.140142144097219
 20
180.50302191840277
 30
0.0
 10
52.215417480468744
 20
180.57123480902777
 30
0.0
 10
52.258653428819443
 20
180.66804199218748
 30
0.0
 10
52.259170193142353
 20
180.76967230902775
 30
0.0
 10
52.257792154947914
 20
180.96569824218747
 30
0.0
 10
52.0993177625868
 20
181.12417263454859
 30
0.0
 10
51.903464084201381
 20
181.12555067274303
 30
0.0
 10
51.707265896267359
 20
181.12451714409721
 30
0.0
 10
51.548102484809021
 20
180.9660427517361
 30
0.0
 10
51.546379937065964
 20
180.76967230902775
 30
0.0
 10
51.638191731770831
 20
180.53351101345484
 30
0.0
 10
51.902602810329853
 20
180.414655219184
 30
0.0
 10
52.140142144097219
 20
180.50302191840277
 30
0.0
  0
LINE
  5
213
100
AcDbEntity
  8
LAYER_1
 62
     7
100
AcDbLine
 10
136.081272
 20
111.274173
 30
0.0
 11
141.336076
 21
111.274173
 31
0.0
  0
LINE
  5
212
100
AcDbEntity
  8
LAYER_1
 62
     7
100
AcDbLine
 10
144.71158
 20
111.274173
 30
0.0
 11
149.967763
 21
111.274173
 31
0.0
  0
LINE
  5
211
100
AcDbEntity
  8
LAYER_1
 62
     7
100
AcDbLine
 10
88.135706
 20
103.517196
 30
0.0
 11
88.135706
 21
98.490112
 31
0.0
  0
POLYLINE
  5
20C
100
AcDbEntity
  8
LAYER_1
 62
     7
100
AcDb2dPolyline
 66
     1
 10
0.0
 20
0.0
 30
0.0
  0
VERTEX
  5
20D
100
AcDbEntity
  8
LAYER_1
 62
     7
100
AcDbVertex
100
AcDb2dVertex
 10
138.250993
 20
102.037183
 30
0.0
  0
VERTEX
  5
20E
100
AcDbEntity
  8
LAYER_1
 62
     7
100
AcDbVertex
100
AcDb2dVertex
 10
131.349433
 20
114.277951
 30
0.0
  0
VERTEX
  5
20F
100
AcDbEntity
  8
LAYER_1
 62
     7
100
AcDbVertex
100
AcDb2dVertex
 10
129.119767
 20
114.277951
 30
0.0
  0
SEQEND
  5
210
100
AcDbEntity
  8
LAYER_1
 62
     7
  0
SPLINE
  5
20B
100
AcDbEntity
  8
LAYER_1
 62
     7
100
AcDbSpline
210
0.0
220
0.0
230
1.0
 70
     8
 71
     3
 72
    17
 73
    13
 74
     0
 42
0.00000001
 43
0.00000001
 40
0.0
 40
0.0
 40
0.0
 40
0.0
 40
1.0
 40
1.0
 40
1.0
 40
2.0
 40
2.0
 40
2.0
 40
3.0
 40
3.0
 40
3.0
 40
4.0
 40
4.0
 40
4.0
 40
4.0
 10
138.29784613715276
 20
101.6651123046875
 30
0.0
 10
138.10147569444445
 20
101.66614583333332
 30
0.0
 10
137.94265679253471
 20
101.82496473524304
 30
0.0
 10
137.94093424479166
 20
102.02133517795139
 30
0.0
 10
138.03257378472222
 20
102.2576687282986
 30
0.0
 10
138.29715711805554
 20
102.37618001302083
 30
0.0
 10
138.53486870659722
 20
102.28798556857637
 30
0.0
 10
138.60997178819443
 20
102.21977267795138
 30
0.0
 10
138.65303548177081
 20
102.12296549479166
 30
0.0
 10
138.65372450086804
 20
102.02133517795139
 30
0.0
 10
138.65234646267359
 20
101.82530924479165
 30
0.0
 10
138.49387207031248
 20
101.66649034288193
 30
0.0
 10
138.29784613715276
 20
101.6651123046875
 30
0.0
  0
POLYLINE
  5
206
100
AcDbEntity
  8
LAYER_1
 62
     7
100
AcDb2dPolyline
 66
     1
 10
0.0
 20
0.0
 30
0.0
  0
VERTEX
  5
207
100
AcDbEntity
  8
LAYER_1
 62
     7
100
AcDbVertex
100
AcDb2dVertex
 10
142.902905
 20
106.333561
 30
0.0
  0
VERTEX
  5
208
100
AcDbEntity
  8
LAYER_1
 62
     7
100
AcDbVertex
100
AcDb2dVertex
 10
134.752498
 20
120.583165
 30
0.0
  0
VERTEX
  5
209
100
AcDbEntity
  8
LAYER_1
 62
     7
100
AcDbVertex
100
AcDb2dVertex
 10
132.521455
 20
120.583165
 30
0.0
  0
SEQEND
  5
20A
100
AcDbEntity
  8
LAYER_1
 62
     7
  0
SPLINE
  5
205
100
AcDbEntity
  8
LAYER_1
 62
     7
100
AcDbSpline
210
0.0
220
0.0
230
1.0
 70
     8
 71
     3
 72
    17
 73
    13
 74
     0
 42
0.00000001
 43
0.00000001
 40
0.0
 40
0.0
 40
0.0
 40
0.0
 40
1.0
 40
1.0
 40
1.0
 40
2.0
 40
2.0
 40
2.0
 40
3.0
 40
3.0
 40
3.0
 40
4.0
 40
4.0
 40
4.0
 40
4.0
 10
142.95010308159721
 20
105.96149088541665
 30
0.0
 10
142.75373263888886
 20
105.96321343315971
 30
0.0
 10
142.59560275607637
 20
106.12168782552082
 30
0.0
 10
142.59422471788193
 20
106.31771375868054
 30
0.0
 10
142.68551974826389
 20
106.55370279947915
 30
0.0
 10
142.94941406249998
 20
106.67255859375
 30
0.0
 10
143.18678114149304
 20
106.58470865885415
 30
0.0
 10
143.2625732421875
 20
106.51649576822916
 30
0.0
 10
143.30598144531248
 20
106.41968858506944
 30
0.0
 10
143.30701497395833
 20
106.31771375868054
 30
0.0
 10
143.30529242621526
 20
106.12134331597221
 30
0.0
 10
143.14647352430555
 20
105.96252441406249
 30
0.0
 10
142.95010308159721
 20
105.96149088541665
 30
0.0
  0
POLYLINE
  5
200
100
AcDbEntity
  8
LAYER_1
 62
     7
100
AcDb2dPolyline
 66
     1
 10
0.0
 20
0.0
 30
0.0
  0
VERTEX
  5
201
100
AcDbEntity
  8
LAYER_1
 62
     7
100
AcDbVertex
100
AcDb2dVertex
 10
77.108127
 20
111.629706
 30
0.0
  0
VERTEX
  5
202
100
AcDbEntity
  8
LAYER_1
 62
     7
100
AcDbVertex
100
AcDb2dVertex
 10
89.777121
 20
133.790283
 30
0.0
  0
VERTEX
  5
203
100
AcDbEntity
  8
LAYER_1
 62
     7
100
AcDbVertex
100
AcDb2dVertex
 10
92.006959
 20
133.790283
 30
0.0
  0
SEQEND
  5
204
100
AcDbEntity
  8
LAYER_1
 62
     7
  0
SPLINE
  5
1FF
100
AcDbEntity
  8
LAYER_1
 62
     7
100
AcDbSpline
210
0.0
220
0.0
230
1.0
 70
     8
 71
     3
 72
    17
 73
    13
 74
     0
 42
0.00000001
 43
0.00000001
 40
0.0
 40
0.0
 40
0.0
 40
0.0
 40
1.0
 40
1.0
 40
1.0
 40
2.0
 40
2.0
 40
2.0
 40
3.0
 40
3.0
 40
3.0
 40
4.0
 40
4.0
 40
4.0
 40
4.0
 10
77.297607421875
 20
111.34720865885416
 30
0.0
 10
77.373055013020831
 20
111.41576605902777
 30
0.0
 10
77.416118706597217
 20
111.51257324218749
 30
0.0
 10
77.416635470920127
 20
111.61385904947916
 30
0.0
 10
77.415601942274293
 20
111.81022949218749
 30
0.0
 10
77.257127549913193
 20
111.96904839409721
 30
0.0
 10
77.061101616753461
 20
111.97042643229166
 30
0.0
 10
76.86455891927082
 20
111.96939290364583
 30
0.0
 10
76.705567762586796
 20
111.8105740017361
 30
0.0
 10
76.704017469618051
 20
111.61385904947916
 30
0.0
 10
76.795829264322904
 20
111.37787000868055
 30
0.0
 10
77.06024034288194
 20
111.25901421440972
 30
0.0
 10
77.297607421875
 20
111.34720865885416
 30
0.0
  0
POLYLINE
  5
1FA
100
AcDbEntity
  8
LAYER_1
 62
     7
100
AcDb2dPolyline
 66
     1
 10
0.0
 20
0.0
 30
0.0
  0
VERTEX
  5
1FB
100
AcDbEntity
  8
LAYER_1
 62
     7
100
AcDbVertex
100
AcDb2dVertex
 10
68.515542
 20
107.486979
 30
0.0
  0
VERTEX
  5
1FC
100
AcDbEntity
  8
LAYER_1
 62
     7
100
AcDbVertex
100
AcDb2dVertex
 10
89.488078
 20
144.267508
 30
0.0
  0
VERTEX
  5
1FD
100
AcDbEntity
  8
LAYER_1
 62
     7
100
AcDbVertex
100
AcDb2dVertex
 10
91.718088
 20
144.267508
 30
0.0
  0
SEQEND
  5
1FE
100
AcDbEntity
  8
LAYER_1
 62
     7
  0
SPLINE
  5
1F9
100
AcDbEntity
  8
LAYER_1
 62
     7
100
AcDbSpline
210
0.0
220
0.0
230
1.0
 70
     8
 71
     3
 72
    17
 73
    13
 74
     0
 42
0.00000001
 43
0.00000001
 40
0.0
 40
0.0
 40
0.0
 40
0.0
 40
1.0
 40
1.0
 40
1.0
 40
2.0
 40
2.0
 40
2.0
 40
3.0
 40
3.0
 40
3.0
 40
4.0
 40
4.0
 40
4.0
 40
4.0
 10
68.703988986545127
 20
107.20448133680554
 30
0.0
 10
68.779608832465271
 20
107.27269422743055
 30
0.0
 10
68.823189290364581
 20
107.36950141059027
 30
0.0
 10
68.824222819010416
 20
107.47147623697916
 30
0.0
 10
68.822672526041657
 20
107.66784667968749
 30
0.0
 10
68.66350911458332
 20
107.82666558159721
 30
0.0
 10
68.467138671874991
 20
107.82769911024305
 30
0.0
 10
68.271112738715274
 20
107.8263210720486
 30
0.0
 10
68.11263834635416
 20
107.66750217013887
 30
0.0
 10
68.111604817708326
 20
107.47147623697916
 30
0.0
 10
68.202899848090269
 20
107.23548719618054
 30
0.0
 10
68.46679416232638
 20
107.11663140190971
 30
0.0
 10
68.703988986545127
 20
107.20448133680554
 30
0.0
  0
POLYLINE
  5
1F4
100
AcDbEntity
  8
LAYER_1
 62
     7
100
AcDb2dPolyline
 66
     1
 10
0.0
 20
0.0
 30
0.0
  0
VERTEX
  5
1F5
100
AcDbEntity
  8
LAYER_1
 62
     7
100
AcDbVertex
100
AcDb2dVertex
 10
75.550427
 20
105.151204
 30
0.0
  0
VERTEX
  5
1F6
100
AcDbEntity
  8
LAYER_1
 62
     7
100
AcDbVertex
100
AcDb2dVertex
 10
88.219594
 20
127.311781
 30
0.0
  0
VERTEX
  5
1F7
100
AcDbEntity
  8
LAYER_1
 62
     7
100
AcDbVertex
100
AcDb2dVertex
 10
90.449432
 20
127.311781
 30
0.0
  0
SEQEND
  5
1F8
100
AcDbEntity
  8
LAYER_1
 62
     7
  0
SPLINE
  5
1F3
100
AcDbEntity
  8
LAYER_1
 62
     7
100
AcDbSpline
210
0.0
220
0.0
230
1.0
 70
     8
 71
     3
 72
    17
 73
    13
 74
     0
 42
0.00000001
 43
0.00000001
 40
0.0
 40
0.0
 40
0.0
 40
0.0
 40
1.0
 40
1.0
 40
1.0
 40
2.0
 40
2.0
 40
2.0
 40
3.0
 40
3.0
 40
3.0
 40
4.0
 40
4.0
 40
4.0
 40
4.0
 10
75.74007975260416
 20
104.86870659722221
 30
0.0
 10
75.815699598524304
 20
104.93691948784721
 30
0.0
 10
75.859452311197913
 20
105.03372667100693
 30
0.0
 10
75.860485839843747
 20
105.13535698784722
 30
0.0
 10
75.85876329210069
 20
105.33207194010416
 30
0.0
 10
75.699772135416666
 20
105.49089084201388
 30
0.0
 10
75.503401692708323
 20
105.49192437065972
 30
0.0
 10
75.307375759548606
 20
105.49020182291666
 30
0.0
 10
75.148901367187491
 20
105.33172743055555
 30
0.0
 10
75.147695583767359
 20
105.13535698784722
 30
0.0
 10
75.238990614149301
 20
104.89971245659721
 30
0.0
 10
75.502884928385413
 20
104.78085666232639
 30
0.0
 10
75.74007975260416
 20
104.86870659722221
 30
0.0
  0
POLYLINE
  5
1EE
100
AcDbEntity
  8
LAYER_1
 62
     7
100
AcDb2dPolyline
 66
     1
 10
0.0
 20
0.0
 30
0.0
  0
VERTEX
  5
1EF
100
AcDbEntity
  8
LAYER_1
 62
     7
100
AcDbVertex
100
AcDb2dVertex
 10
51.789604
 20
180.568306
 30
0.0
  0
VERTEX
  5
1F0
100
AcDbEntity
  8
LAYER_1
 62
     7
100
AcDbVertex
100
AcDb2dVertex
 10
64.401237
 20
203.256844
 30
0.0
  0
VERTEX
  5
1F1
100
AcDbEntity
  8
LAYER_1
 62
     7
100
AcDbVertex
100
AcDb2dVertex
 10
66.630903
 20
203.256844
 30
0.0
  0
SEQEND
  5
1F2
100
AcDbEntity
  8
LAYER_1
 62
     7
  0
POLYLINE
  5
1E9
100
AcDbEntity
  8
LAYER_1
 62
     7
100
AcDb2dPolyline
 66
     1
 10
0.0
 20
0.0
 30
0.0
  0
VERTEX
  5
1EA
100
AcDbEntity
  8
LAYER_1
 62
     7
100
AcDbVertex
100
AcDb2dVertex
 10
43.466425
 20
179.231609
 30
0.0
  0
VERTEX
  5
1EB
100
AcDbEntity
  8
LAYER_1
 62
     7
100
AcDbVertex
100
AcDb2dVertex
 10
59.172443
 20
206.783933
 30
0.0
  0
VERTEX
  5
1EC
100
AcDbEntity
  8
LAYER_1
 62
     7
100
AcDbVertex
100
AcDb2dVertex
 10
61.402281
 20
206.783933
 30
0.0
  0
SEQEND
  5
1ED
100
AcDbEntity
  8
LAYER_1
 62
     7
  0
SPLINE
  5
1E8
100
AcDbEntity
  8
LAYER_1
 62
     7
100
AcDbSpline
210
0.0
220
0.0
230
1.0
 70
     8
 71
     3
 72
    17
 73
    13
 74
     0
 42
0.00000001
 43
0.00000001
 40
0.0
 40
0.0
 40
0.0
 40
0.0
 40
1.0
 40
1.0
 40
1.0
 40
2.0
 40
2.0
 40
2.0
 40
3.0
 40
3.0
 40
3.0
 40
4.0
 40
4.0
 40
4.0
 40
4.0
 10
43.654871961805554
 20
178.94928385416665
 30
0.0
 10
43.730491807725691
 20
179.01732449001736
 30
0.0
 10
43.7742445203993
 20
179.11413167317707
 30
0.0
 10
43.775105794270829
 20
179.21593424479164
 30
0.0
 10
43.773383246527771
 20
179.41213243272568
 30
0.0
 10
43.614392089843747
 20
179.5706068250868
 30
0.0
 10
43.418021647135411
 20
179.57181260850692
 30
0.0
 10
43.222340223524299
 20
179.57026231553817
 30
0.0
 10
43.063865831163191
 20
179.41178792317706
 30
0.0
 10
43.062487792968746
 20
179.21593424479164
 30
0.0
 10
43.153782823350689
 20
178.97994520399303
 30
0.0
 10
43.4176771375868
 20
178.86126166449651
 30
0.0
 10
43.654871961805554
 20
178.94928385416665
 30
0.0
  0
POLYLINE
  5
1E3
100
AcDbEntity
  8
LAYER_1
 62
     7
100
AcDb2dPolyline
 66
     1
 10
0.0
 20
0.0
 30
0.0
  0
VERTEX
  5
1E4
100
AcDbEntity
  8
LAYER_1
 62
     7
100
AcDbVertex
100
AcDb2dVertex
 10
72.042803
 20
178.616315
 30
0.0
  0
VERTEX
  5
1E5
100
AcDbEntity
  8
LAYER_1
 62
     7
100
AcDbVertex
100
AcDb2dVertex
 10
79.558968
 20
191.895608
 30
0.0
  0
VERTEX
  5
1E6
100
AcDbEntity
  8
LAYER_1
 62
     7
100
AcDbVertex
100
AcDb2dVertex
 10
81.788806
 20
191.895608
 30
0.0
  0
SEQEND
  5
1E7
100
AcDbEntity
  8
LAYER_1
 62
     7
  0
POLYLINE
  5
1DE
100
AcDbEntity
  8
LAYER_1
 62
     7
100
AcDb2dPolyline
 66
     1
 10
0.0
 20
0.0
 30
0.0
  0
VERTEX
  5
1DF
100
AcDbEntity
  8
LAYER_1
 62
     7
100
AcDbVertex
100
AcDb2dVertex
 10
65.861957
 20
182.557505
 30
0.0
  0
VERTEX
  5
1E0
100
AcDbEntity
  8
LAYER_1
 62
     7
100
AcDbVertex
100
AcDb2dVertex
 10
75.108421
 20
198.949958
 30
0.0
  0
VERTEX
  5
1E1
100
AcDbEntity
  8
LAYER_1
 62
     7
100
AcDbVertex
100
AcDb2dVertex
 10
77.33826
 20
198.949958
 30
0.0
  0
SEQEND
  5
1E2
100
AcDbEntity
  8
LAYER_1
 62
     7
  0
SPLINE
  5
1DD
100
AcDbEntity
  8
LAYER_1
 62
     7
100
AcDbSpline
210
0.0
220
0.0
230
1.0
 70
     8
 71
     3
 72
    17
 73
    13
 74
     0
 42
0.00000001
 43
0.00000001
 40
0.0
 40
0.0
 40
0.0
 40
0.0
 40
1.0
 40
1.0
 40
1.0
 40
2.0
 40
2.0
 40
2.0
 40
3.0
 40
3.0
 40
3.0
 40
4.0
 40
4.0
 40
4.0
 40
4.0
 10
66.051609971788181
 20
182.275006781684
 30
0.0
 10
66.126885308159714
 20
182.3433919270833
 30
0.0
 10
66.1699490017361
 20
182.44019911024304
 30
0.0
 10
66.170638020833323
 20
182.54182942708331
 30
0.0
 10
66.169259982638877
 20
182.73785536024303
 30
0.0
 10
66.010785590277777
 20
182.89615749782985
 30
0.0
 10
65.814931911892359
 20
182.89753553602429
 30
0.0
 10
65.618561469184016
 20
182.89650200737844
 30
0.0
 10
65.459570312499991
 20
182.73819986979166
 30
0.0
 10
65.457847764756934
 20
182.54182942708331
 30
0.0
 10
65.549659559461801
 20
182.3056681315104
 30
0.0
 10
65.814070638020823
 20
182.18681233723956
 30
0.0
 10
66.051609971788181
 20
182.275006781684
 30
0.0
  0
POLYLINE
  5
1D8
100
AcDbEntity
  8
LAYER_1
 62
     7
100
AcDb2dPolyline
 66
     1
 10
0.0
 20
0.0
 30
0.0
  0
VERTEX
  5
1D9
100
AcDbEntity
  8
LAYER_1
 62
     7
100
AcDbVertex
100
AcDb2dVertex
 10
77.501729
 20
176.028187
 30
0.0
  0
VERTEX
  5
1DA
100
AcDbEntity
  8
LAYER_1
 62
     7
100
AcDbVertex
100
AcDb2dVertex
 10
82.922759
 20
185.59694
 30
0.0
  0
VERTEX
  5
1DB
100
AcDbEntity
  8
LAYER_1
 62
     7
100
AcDbVertex
100
AcDb2dVertex
 10
85.152597
 20
185.59694
 30
0.0
  0
SEQEND
  5
1DC
100
AcDbEntity
  8
LAYER_1
 62
     7
  0
SPLINE
  5
1D7
100
AcDbEntity
  8
LAYER_1
 62
     7
100
AcDbSpline
210
0.0
220
0.0
230
1.0
 70
     8
 71
     3
 72
    17
 73
    13
 74
     0
 42
0.00000001
 43
0.00000001
 40
0.0
 40
0.0
 40
0.0
 40
0.0
 40
1.0
 40
1.0
 40
1.0
 40
2.0
 40
2.0
 40
2.0
 40
3.0
 40
3.0
 40
3.0
 40
4.0
 40
4.0
 40
4.0
 40
4.0
 10
77.691381835937491
 20
175.74568956163193
 30
0.0
 10
77.766657172309024
 20
175.81407470703124
 30
0.0
 10
77.809893120659709
 20
175.91070963541665
 30
0.0
 10
77.810409884982633
 20
176.01233995225692
 30
0.0
 10
77.8092041015625
 20
176.20836588541664
 30
0.0
 10
77.650729709201386
 20
176.36718478732638
 30
0.0
 10
77.454703776041654
 20
176.36873508029512
 30
0.0
 10
77.258333333333326
 20
176.36752929687498
 30
0.0
 10
77.099169921874989
 20
176.20871039496527
 30
0.0
 10
77.097619628906244
 20
176.01233995225692
 30
0.0
 10
77.189431423611097
 20
175.77617865668401
 30
0.0
 10
77.453842502170133
 20
175.65732286241317
 30
0.0
 10
77.691381835937491
 20
175.74568956163193
 30
0.0
  0
POLYLINE
  5
1D2
100
AcDbEntity
  8
LAYER_1
 62
     7
100
AcDb2dPolyline
 66
     1
 10
0.0
 20
0.0
 30
0.0
  0
VERTEX
  5
1D3
100
AcDbEntity
  8
LAYER_1
 62
     7
100
AcDbVertex
100
AcDb2dVertex
 10
75.609338
 20
137.130648
 30
0.0
  0
VERTEX
  5
1D4
100
AcDbEntity
  8
LAYER_1
 62
     7
100
AcDbVertex
100
AcDb2dVertex
 10
88.276954
 20
159.291225
 30
0.0
  0
VERTEX
  5
1D5
100
AcDbEntity
  8
LAYER_1
 62
     7
100
AcDbVertex
100
AcDb2dVertex
 10
90.506965
 20
159.291225
 30
0.0
  0
SEQEND
  5
1D6
100
AcDbEntity
  8
LAYER_1
 62
     7
  0
SPLINE
  5
1D1
100
AcDbEntity
  8
LAYER_1
 62
     7
100
AcDbSpline
210
0.0
220
0.0
230
1.0
 70
     8
 71
     3
 72
    17
 73
    13
 74
     0
 42
0.00000001
 43
0.00000001
 40
0.0
 40
0.0
 40
0.0
 40
0.0
 40
1.0
 40
1.0
 40
1.0
 40
2.0
 40
2.0
 40
2.0
 40
3.0
 40
3.0
 40
3.0
 40
4.0
 40
4.0
 40
4.0
 40
4.0
 10
75.797612847222211
 20
136.84814995659721
 30
0.0
 10
75.873404947916654
 20
136.91636284722222
 30
0.0
 10
75.916985405815964
 20
137.01317003038193
 30
0.0
 10
75.9178466796875
 20
137.1148003472222
 30
0.0
 10
75.916468641493054
 20
137.31151529947914
 30
0.0
 10
75.757305230034717
 20
137.46998969184025
 30
0.0
 10
75.560934787326389
 20
137.4713677300347
 30
0.0
 10
75.364908854166657
 20
137.46964518229166
 30
0.0
 10
75.206434461805543
 20
137.31117078993054
 30
0.0
 10
75.20522867838541
 20
137.1148003472222
 30
0.0
 10
75.296695963541666
 20
136.87915581597221
 30
0.0
 10
75.560418023003464
 20
136.76030002170137
 30
0.0
 10
75.797612847222211
 20
136.84814995659721
 30
0.0
  0
LINE
  5
1D0
100
AcDbEntity
  8
LAYER_1
 62
     7
100
AcDbLine
 10
86.795391
 20
172.578441
 30
0.0
 11
86.795391
 21
162.045234
 31
0.0
  0
POLYLINE
  5
1CB
100
AcDbEntity
  8
LAYER_1
 62
     7
100
AcDb2dPolyline
 66
     1
 10
0.0
 20
0.0
 30
0.0
  0
VERTEX
  5
1CC
100
AcDbEntity
  8
LAYER_1
 62
     7
100
AcDbVertex
100
AcDb2dVertex
 10
37.175853
 20
137.31496
 30
0.0
  0
VERTEX
  5
1CD
100
AcDbEntity
  8
LAYER_1
 62
     7
100
AcDbVertex
100
AcDb2dVertex
 10
39.070828
 20
137.822767
 30
0.0
  0
VERTEX
  5
1CE
100
AcDbEntity
  8
LAYER_1
 62
     7
100
AcDbVertex
100
AcDb2dVertex
 10
37.175853
 20
138.330575
 30
0.0
  0
SEQEND
  5
1CF
100
AcDbEntity
  8
LAYER_1
 62
     7
  0
POLYLINE
  5
1C6
100
AcDbEntity
  8
LAYER_1
 62
     7
100
AcDb2dPolyline
 66
     1
 10
0.0
 20
0.0
 30
0.0
  0
VERTEX
  5
1C7
100
AcDbEntity
  8
LAYER_1
 62
     7
100
AcDbVertex
100
AcDb2dVertex
 10
63.200621
 20
137.27672
 30
0.0
  0
VERTEX
  5
1C8
100
AcDbEntity
  8
LAYER_1
 62
     7
100
AcDbVertex
100
AcDb2dVertex
 10
65.095596
 20
137.784182
 30
0.0
  0
VERTEX
  5
1C9
100
AcDbEntity
  8
LAYER_1
 62
     7
100
AcDbVertex
100
AcDb2dVertex
 10
63.200621
 20
138.291989
 30
0.0
  0
SEQEND
  5
1CA
100
AcDbEntity
  8
LAYER_1
 62
     7
  0
POLYLINE
  5
1C1
100
AcDbEntity
  8
LAYER_1
 62
     7
100
AcDb2dPolyline
 66
     1
 10
0.0
 20
0.0
 30
0.0
  0
VERTEX
  5
1C2
100
AcDbEntity
  8
LAYER_1
 62
     7
100
AcDbVertex
100
AcDb2dVertex
 10
140.931966
 20
75.190587
 30
0.0
  0
VERTEX
  5
1C3
100
AcDbEntity
  8
LAYER_1
 62
     7
100
AcDbVertex
100
AcDb2dVertex
 10
142.827113
 20
75.698394
 30
0.0
  0
VERTEX
  5
1C4
100
AcDbEntity
  8
LAYER_1
 62
     7
100
AcDbVertex
100
AcDb2dVertex
 10
140.931966
 20
76.205857
 30
0.0
  0
SEQEND
  5
1C5
100
AcDbEntity
  8
LAYER_1
 62
     7
  0
POLYLINE
  5
1BC
100
AcDbEntity
  8
LAYER_1
 62
     7
100
AcDb2dPolyline
 66
     1
 10
0.0
 20
0.0
 30
0.0
  0
VERTEX
  5
1BD
100
AcDbEntity
  8
LAYER_1
 62
     7
100
AcDbVertex
100
AcDb2dVertex
 10
139.441273
 20
110.76671
 30
0.0
  0
VERTEX
  5
1BE
100
AcDbEntity
  8
LAYER_1
 62
     7
100
AcDbVertex
100
AcDb2dVertex
 10
141.336076
 20
111.274173
 30
0.0
  0
VERTEX
  5
1BF
100
AcDbEntity
  8
LAYER_1
 62
     7
100
AcDbVertex
100
AcDb2dVertex
 10
139.441273
 20
111.78198
 30
0.0
  0
SEQEND
  5
1C0
100
AcDbEntity
  8
LAYER_1
 62
     7
  0
POLYLINE
  5
1B7
100
AcDbEntity
  8
LAYER_1
 62
     7
100
AcDb2dPolyline
 66
     1
 10
0.0
 20
0.0
 30
0.0
  0
VERTEX
  5
1B8
100
AcDbEntity
  8
LAYER_1
 62
     7
100
AcDbVertex
100
AcDb2dVertex
 10
146.606727
 20
111.78198
 30
0.0
  0
VERTEX
  5
1B9
100
AcDbEntity
  8
LAYER_1
 62
     7
100
AcDbVertex
100
AcDb2dVertex
 10
144.71158
 20
111.274173
 30
0.0
  0
VERTEX
  5
1BA
100
AcDbEntity
  8
LAYER_1
 62
     7
100
AcDbVertex
100
AcDb2dVertex
 10
146.606727
 20
110.76671
 30
0.0
  0
SEQEND
  5
1BB
100
AcDbEntity
  8
LAYER_1
 62
     7
  0
POLYLINE
  5
1B2
100
AcDbEntity
  8
LAYER_1
 62
     7
100
AcDb2dPolyline
 66
     1
 10
0.0
 20
0.0
 30
0.0
  0
VERTEX
  5
1B3
100
AcDbEntity
  8
LAYER_1
 62
     7
100
AcDbVertex
100
AcDb2dVertex
 10
64.997583
 20
86.101893
 30
0.0
  0
VERTEX
  5
1B4
100
AcDbEntity
  8
LAYER_1
 62
     7
100
AcDbVertex
100
AcDb2dVertex
 10
66.892558
 20
86.609701
 30
0.0
  0
VERTEX
  5
1B5
100
AcDbEntity
  8
LAYER_1
 62
     7
100
AcDbVertex
100
AcDb2dVertex
 10
64.997583
 20
87.117508
 30
0.0
  0
SEQEND
  5
1B6
100
AcDbEntity
  8
LAYER_1
 62
     7
  0
POLYLINE
  5
1AD
100
AcDbEntity
  8
LAYER_1
 62
     7
100
AcDb2dPolyline
 66
     1
 10
0.0
 20
0.0
 30
0.0
  0
VERTEX
  5
1AE
100
AcDbEntity
  8
LAYER_1
 62
     7
100
AcDbVertex
100
AcDb2dVertex
 10
68.923958
 20
76.26339
 30
0.0
  0
VERTEX
  5
1AF
100
AcDbEntity
  8
LAYER_1
 62
     7
100
AcDbVertex
100
AcDb2dVertex
 10
67.028811
 20
75.755927
 30
0.0
  0
VERTEX
  5
1B0
100
AcDbEntity
  8
LAYER_1
 62
     7
100
AcDbVertex
100
AcDb2dVertex
 10
68.923958
 20
75.24812
 30
0.0
  0
SEQEND
  5
1B1
100
AcDbEntity
  8
LAYER_1
 62
     7
  0
POLYLINE
  5
1A8
100
AcDbEntity
  8
LAYER_1
 62
     7
100
AcDb2dPolyline
 66
     1
 10
0.0
 20
0.0
 30
0.0
  0
VERTEX
  5
1A9
100
AcDbEntity
  8
LAYER_1
 62
     7
100
AcDbVertex
100
AcDb2dVertex
 10
77.271941
 20
87.117163
 30
0.0
  0
VERTEX
  5
1AA
100
AcDbEntity
  8
LAYER_1
 62
     7
100
AcDbVertex
100
AcDb2dVertex
 10
75.376967
 20
86.609356
 30
0.0
  0
VERTEX
  5
1AB
100
AcDbEntity
  8
LAYER_1
 62
     7
100
AcDbVertex
100
AcDb2dVertex
 10
77.271941
 20
86.101893
 30
0.0
  0
SEQEND
  5
1AC
100
AcDbEntity
  8
LAYER_1
 62
     7
  0
POLYLINE
  5
1A3
100
AcDbEntity
  8
LAYER_1
 62
     7
100
AcDb2dPolyline
 66
     1
 10
0.0
 20
0.0
 30
0.0
  0
VERTEX
  5
1A4
100
AcDbEntity
  8
LAYER_1
 62
     7
100
AcDbVertex
100
AcDb2dVertex
 10
87.302681
 20
170.683639
 30
0.0
  0
VERTEX
  5
1A5
100
AcDbEntity
  8
LAYER_1
 62
     7
100
AcDbVertex
100
AcDb2dVertex
 10
86.795391
 20
172.578441
 30
0.0
  0
VERTEX
  5
1A6
100
AcDbEntity
  8
LAYER_1
 62
     7
100
AcDbVertex
100
AcDb2dVertex
 10
86.287756
 20
170.683639
 30
0.0
  0
SEQEND
  5
1A7
100
AcDbEntity
  8
LAYER_1
 62
     7
  0
POLYLINE
  5
19E
100
AcDbEntity
  8
LAYER_1
 62
     7
100
AcDb2dPolyline
 66
     1
 10
0.0
 20
0.0
 30
0.0
  0
VERTEX
  5
19F
100
AcDbEntity
  8
LAYER_1
 62
     7
100
AcDbVertex
100
AcDb2dVertex
 10
86.270875
 20
176.354782
 30
0.0
  0
VERTEX
  5
1A0
100
AcDbEntity
  8
LAYER_1
 62
     7
100
AcDbVertex
100
AcDb2dVertex
 10
86.778166
 20
174.45998
 30
0.0
  0
VERTEX
  5
1A1
100
AcDbEntity
  8
LAYER_1
 62
     7
100
AcDbVertex
100
AcDb2dVertex
 10
87.285801
 20
176.354782
 30
0.0
  0
SEQEND
  5
1A2
100
AcDbEntity
  8
LAYER_1
 62
     7
  0
POLYLINE
  5
199
100
AcDbEntity
  8
LAYER_1
 62
     7
100
AcDb2dPolyline
 66
     1
 10
0.0
 20
0.0
 30
0.0
  0
VERTEX
  5
19A
100
AcDbEntity
  8
LAYER_1
 62
     7
100
AcDbVertex
100
AcDb2dVertex
 10
88.611818
 20
110.56276
 30
0.0
  0
VERTEX
  5
19B
100
AcDbEntity
  8
LAYER_1
 62
     7
100
AcDbVertex
100
AcDb2dVertex
 10
88.104527
 20
108.667958
 30
0.0
  0
VERTEX
  5
19C
100
AcDbEntity
  8
LAYER_1
 62
     7
100
AcDbVertex
100
AcDb2dVertex
 10
87.596893
 20
110.56276
 30
0.0
  0
SEQEND
  5
19D
100
AcDbEntity
  8
LAYER_1
 62
     7
  0
POLYLINE
  5
194
100
AcDbEntity
  8
LAYER_1
 62
     7
100
AcDb2dPolyline
 66
     1
 10
0.0
 20
0.0
 30
0.0
  0
VERTEX
  5
195
100
AcDbEntity
  8
LAYER_1
 62
     7
100
AcDbVertex
100
AcDb2dVertex
 10
88.659016
 20
101.450483
 30
0.0
  0
VERTEX
  5
196
100
AcDbEntity
  8
LAYER_1
 62
     7
100
AcDbVertex
100
AcDb2dVertex
 10
88.150175
 20
103.34563
 30
0.0
  0
VERTEX
  5
197
100
AcDbEntity
  8
LAYER_1
 62
     7
100
AcDbVertex
100
AcDb2dVertex
 10
87.642885
 20
101.450483
 30
0.0
  0
SEQEND
  5
198
100
AcDbEntity
  8
LAYER_1
 62
     7
  0
POLYLINE
  5
18F
100
AcDbEntity
  8
LAYER_1
 62
     7
100
AcDb2dPolyline
 66
     1
 10
0.0
 20
0.0
 30
0.0
  0
VERTEX
  5
190
100
AcDbEntity
  8
LAYER_1
 62
     7
100
AcDbVertex
100
AcDb2dVertex
 10
161.724151
 20
172.60049
 30
0.0
  0
VERTEX
  5
191
100
AcDbEntity
  8
LAYER_1
 62
     7
100
AcDbVertex
100
AcDb2dVertex
 10
161.216688
 20
174.495292
 30
0.0
  0
VERTEX
  5
192
100
AcDbEntity
  8
LAYER_1
 62
     7
100
AcDbVertex
100
AcDb2dVertex
 10
160.709226
 20
172.60049
 30
0.0
  0
SEQEND
  5
193
100
AcDbEntity
  8
LAYER_1
 62
     7
  0
POLYLINE
  5
18A
100
AcDbEntity
  8
LAYER_1
 62
     7
100
AcDb2dPolyline
 66
     1
 10
0.0
 20
0.0
 30
0.0
  0
VERTEX
  5
18B
100
AcDbEntity
  8
LAYER_1
 62
     7
100
AcDbVertex
100
AcDb2dVertex
 10
119.17481
 20
106.620538
 30
0.0
  0
VERTEX
  5
18C
100
AcDbEntity
  8
LAYER_1
 62
     7
100
AcDbVertex
100
AcDb2dVertex
 10
118.667348
 20
108.515685
 30
0.0
  0
VERTEX
  5
18D
100
AcDbEntity
  8
LAYER_1
 62
     7
100
AcDbVertex
100
AcDb2dVertex
 10
118.159885
 20
106.620538
 30
0.0
  0
SEQEND
  5
18E
100
AcDbEntity
  8
LAYER_1
 62
     7
  0
POLYLINE
  5
185
100
AcDbEntity
  8
LAYER_1
 62
     7
100
AcDb2dPolyline
 66
     1
 10
0.0
 20
0.0
 30
0.0
  0
VERTEX
  5
186
100
AcDbEntity
  8
LAYER_1
 62
     7
100
AcDbVertex
100
AcDb2dVertex
 10
160.658238
 20
110.343308
 30
0.0
  0
VERTEX
  5
187
100
AcDbEntity
  8
LAYER_1
 62
     7
100
AcDbVertex
100
AcDb2dVertex
 10
161.165701
 20
108.448505
 30
0.0
  0
VERTEX
  5
188
100
AcDbEntity
  8
LAYER_1
 62
     7
100
AcDbVertex
100
AcDb2dVertex
 10
161.672819
 20
110.343308
 30
0.0
  0
SEQEND
  5
189
100
AcDbEntity
  8
LAYER_1
 62
     7
  0
POLYLINE
  5
180
100
AcDbEntity
  8
LAYER_1
 62
     7
100
AcDb2dPolyline
 66
     1
 10
0.0
 20
0.0
 30
0.0
  0
VERTEX
  5
181
100
AcDbEntity
  8
LAYER_1
 62
     7
100
AcDbVertex
100
AcDb2dVertex
 10
118.159885
 20
99.683493
 30
0.0
  0
VERTEX
  5
182
100
AcDbEntity
  8
LAYER_1
 62
     7
100
AcDbVertex
100
AcDb2dVertex
 10
118.667348
 20
97.788346
 30
0.0
  0
VERTEX
  5
183
100
AcDbEntity
  8
LAYER_1
 62
     7
100
AcDbVertex
100
AcDb2dVertex
 10
119.17481
 20
99.683493
 30
0.0
  0
SEQEND
  5
184
100
AcDbEntity
  8
LAYER_1
 62
     7
  0
POLYLINE
  5
17B
100
AcDbEntity
  8
LAYER_1
 62
     7
100
AcDb2dPolyline
 66
     1
 10
0.0
 20
0.0
 30
0.0
  0
VERTEX
  5
17C
100
AcDbEntity
  8
LAYER_1
 62
     7
100
AcDbVertex
100
AcDb2dVertex
 10
43.631445
 20
138.330575
 30
0.0
  0
VERTEX
  5
17D
100
AcDbEntity
  8
LAYER_1
 62
     7
100
AcDbVertex
100
AcDb2dVertex
 10
41.736298
 20
137.822767
 30
0.0
  0
VERTEX
  5
17E
100
AcDbEntity
  8
LAYER_1
 62
     7
100
AcDbVertex
100
AcDb2dVertex
 10
43.631445
 20
137.31496
 30
0.0
  0
SEQEND
  5
17F
100
AcDbEntity
  8
LAYER_1
 62
     7
  0
LINE
  5
17A
100
AcDbEntity
  8
LAYER_1
 62
     7
100
AcDbLine
 10
75.376967
 20
86.609356
 30
0.0
 11
80.553223
 21
86.609356
 31
0.0
  0
LINE
  5
179
100
AcDbEntity
  8
LAYER_1
 62
     7
100
AcDbLine
 10
172.968943
 20
131.134459
 30
0.0
 11
175.277157
 21
131.134459
 31
0.0
  0
LINE
  5
178
100
AcDbEntity
  8
LAYER_1
 62
     7
100
AcDbLine
 10
172.968943
 20
125.903082
 30
0.0
 11
175.277157
 21
125.903082
 31
0.0
  0
LINE
  5
177
100
AcDbEntity
  8
LAYER_1
 62
     7
100
AcDbLine
 10
172.968943
 20
120.671704
 30
0.0
 11
175.277157
 21
120.671704
 31
0.0
  0
POLYLINE
  5
172
100
AcDbEntity
  8
LAYER_1
 62
     7
100
AcDb2dPolyline
 66
     1
 10
0.0
 20
0.0
 30
0.0
  0
VERTEX
  5
173
100
AcDbEntity
  8
LAYER_1
 62
     7
100
AcDbVertex
100
AcDb2dVertex
 10
172.968943
 20
94.674325
 30
0.0
  0
VERTEX
  5
174
100
AcDbEntity
  8
LAYER_1
 62
     7
100
AcDbVertex
100
AcDb2dVertex
 10
172.968943
 20
136.517765
 30
0.0
  0
VERTEX
  5
175
100
AcDbEntity
  8
LAYER_1
 62
     7
100
AcDbVertex
100
AcDb2dVertex
 10
175.277157
 20
136.517765
 30
0.0
  0
SEQEND
  5
176
100
AcDbEntity
  8
LAYER_1
 62
     7
  0
LINE
  5
171
100
AcDbEntity
  8
LAYER_1
 62
     7
100
AcDbLine
 10
172.949306
 20
93.722789
 30
0.0
 11
172.949306
 21
94.674325
 31
0.0
  0
SPLINE
  5
170
100
AcDbEntity
  8
LAYER_1
 62
     7
100
AcDbSpline
210
0.0
220
0.0
230
1.0
 70
     8
 71
     3
 72
    20
 73
    16
 74
     0
 42
0.00000001
 43
0.00000001
 40
0.0
 40
0.0
 40
0.0
 40
0.0
 40
1.0
 40
1.0
 40
1.0
 40
2.0
 40
2.0
 40
2.0
 40
3.0
 40
3.0
 40
3.0
 40
4.0
 40
4.0
 40
4.0
 40
5.0
 40
5.0
 40
5.0
 40
5.0
 10
172.94930555555553
 20
102.77718912760416
 30
0.0
 10
172.86248914930553
 20
102.77718912760416
 30
0.0
 10
172.77946234809025
 20
102.81164008246527
 30
0.0
 10
172.71813964843747
 20
102.87296278211805
 30
0.0
 10
172.65681694878469
 20
102.93428548177083
 30
0.0
 10
172.62236599392361
 20
103.01765679253471
 30
0.0
 10
172.62236599392361
 20
103.10412868923611
 30
0.0
 10
172.71056043836805
 20
103.32082519531249
 30
0.0
 10
172.95654025607638
 20
103.42590060763888
 30
0.0
 10
173.1742702907986
 20
103.34080674913193
 30
0.0
 10
173.23834906684027
 20
103.27879503038193
 30
0.0
 10
173.27521158854165
 20
103.19370117187499
 30
0.0
 10
173.27624511718747
 20
103.10412868923611
 30
0.0
 10
173.27486707899303
 20
102.9242947048611
 30
0.0
 10
173.12948404947915
 20
102.77856716579861
 30
0.0
 10
172.94930555555553
 20
102.77718912760416
 30
0.0
  0
SPLINE
  5
16F
100
AcDbEntity
  8
LAYER_1
 62
     7
100
AcDbSpline
210
0.0
220
0.0
230
1.0
 70
     8
 71
     3
 72
    17
 73
    13
 74
     0
 42
0.00000001
 43
0.00000001
 40
0.0
 40
0.0
 40
0.0
 40
0.0
 40
1.0
 40
1.0
 40
1.0
 40
2.0
 40
2.0
 40
2.0
 40
3.0
 40
3.0
 40
3.0
 40
4.0
 40
4.0
 40
4.0
 40
4.0
 10
172.96894259982636
 20
97.848291015624994
 30
0.0
 10
172.78841959635415
 20
97.849324544270829
 30
0.0
 10
172.64234754774304
 20
97.994707573784709
 30
0.0
 10
172.64062499999997
 20
98.17523057725694
 30
0.0
 10
172.72916395399304
 20
98.391927083333329
 30
0.0
 10
172.97583279079859
 20
98.497347005208326
 30
0.0
 10
173.19390733506944
 20
98.411908637152763
 30
0.0
 10
173.25764160156248
 20
98.349552408854152
 30
0.0
 10
173.29381510416664
 20
98.264458550347214
 30
0.0
 10
173.29450412326386
 20
98.17523057725694
 30
0.0
 10
173.29347059461804
 20
97.995396592881931
 30
0.0
 10
173.14843207465276
 20
97.850013563368051
 30
0.0
 10
172.96894259982636
 20
97.848291015624994
 30
0.0
  0
SPLINE
  5
16E
100
AcDbEntity
  8
LAYER_1
 62
     7
100
AcDbSpline
210
0.0
220
0.0
230
1.0
 70
     8
 71
     3
 72
    17
 73
    13
 74
     0
 42
0.00000001
 43
0.00000001
 40
0.0
 40
0.0
 40
0.0
 40
0.0
 40
1.0
 40
1.0
 40
1.0
 40
2.0
 40
2.0
 40
2.0
 40
3.0
 40
3.0
 40
3.0
 40
4.0
 40
4.0
 40
4.0
 40
4.0
 10
173.02509765624998
 20
95.683393012152763
 30
0.0
 10
172.84491916232636
 20
95.684771050347209
 30
0.0
 10
172.69953613281248
 20
95.830498589409714
 30
0.0
 10
172.69815809461804
 20
96.01067708333332
 30
0.0
 10
172.7866970486111
 20
96.227373589409709
 30
0.0
 10
173.03336588541666
 20
96.33279351128472
 30
0.0
 10
173.25144042968748
 20
96.247010633680546
 30
0.0
 10
173.31517469618055
 20
96.184998914930546
 30
0.0
 10
173.35134819878471
 20
96.099560546874997
 30
0.0
 10
173.35203721788193
 20
96.01067708333332
 30
0.0
 10
173.35065917968748
 20
95.830498589409714
 30
0.0
 10
173.2052761501736
 20
95.684771050347209
 30
0.0
 10
173.02509765624998
 20
95.683393012152763
 30
0.0
  0
SPLINE
  5
16D
100
AcDbEntity
  8
LAYER_1
 62
     7
100
AcDbSpline
210
0.0
220
0.0
230
1.0
 70
     8
 71
     3
 72
    20
 73
    16
 74
     0
 42
0.00000001
 43
0.00000001
 40
0.0
 40
0.0
 40
0.0
 40
0.0
 40
1.0
 40
1.0
 40
1.0
 40
2.0
 40
2.0
 40
2.0
 40
3.0
 40
3.0
 40
3.0
 40
4.0
 40
4.0
 40
4.0
 40
5.0
 40
5.0
 40
5.0
 40
5.0
 10
172.94930555555553
 20
93.068910047743046
 30
0.0
 10
172.76912706163193
 20
93.070288085937491
 30
0.0
 10
172.62339952256943
 20
93.216015624999997
 30
0.0
 10
172.62236599392361
 20
93.395849609374991
 30
0.0
 10
172.66405164930555
 20
93.500580512152766
 30
0.0
 10
172.74570041232639
 20
93.584296332465271
 30
0.0
 10
172.8490532769097
 20
93.628393554687491
 30
0.0
 10
172.95275065104164
 20
93.672835286458323
 30
0.0
 10
173.06953938802081
 20
93.67455783420138
 30
0.0
 10
173.1742702907986
 20
93.63287217881944
 30
0.0
 10
173.23834906684027
 20
93.570515950520829
 30
0.0
 10
173.27521158854165
 20
93.485077582465266
 30
0.0
 10
173.27624511718747
 20
93.395849609374991
 30
0.0
 10
173.27486707899303
 20
93.216015624999997
 30
0.0
 10
173.12913953993055
 20
93.070288085937491
 30
0.0
 10
172.94930555555553
 20
93.068910047743046
 30
0.0
  0
MTEXT
  5
16C
100
AcDbEntity
  8
LAYER_1
 62
     7
100
AcDbMText
 10
176.070907
 20
132.464391
 30
0.0
 40
2.58877
 41
0.0
 71
     1
 72
     2
  1
\W0.50;\fMS Gothic|b0|i0|c128;フラットヤーンクロス(70g/㎡程度)
  7
KANJISTD
210
0.0
220
0.0
230
1.0
 11
1.000001
 21
0.0
 31
0.0
 73
     1
 44
1.0
  0
MTEXT
  5
16B
100
AcDbEntity
  8
LAYER_1
 62
     7
100
AcDbMText
 10
175.840774
 20
121.775982
 30
0.0
 40
2.58877
 41
0.0
 71
     1
 72
     2
  1
\W0.50;\fMS Gothic|b0|i0|c128;防水層
  7
KANJISTD
210
0.0
220
0.0
230
1.0
 11
1.000001
 21
0.0
 31
0.0
 73
     1
 44
1.0
  0
MTEXT
  5
16A
100
AcDbEntity
  8
LAYER_1
 62
     7
100
AcDbMText
 10
175.993736
 20
127.081774
 30
0.0
 40
2.58877
 41
0.0
 71
     1
 72
     2
  1
\W0.50;\fMS Gothic|b0|i0|c128;断熱材
  7
KANJISTD
210
0.0
220
0.0
230
1.0
 11
1.000001
 21
0.0
 31
0.0
 73
     1
 44
1.0
  0
MTEXT
  5
169
100
AcDbEntity
  8
LAYER_1
 62
     7
100
AcDbMText
 10
175.609264
 20
138.001004
 30
0.0
 40
2.58877
 41
0.0
 71
     1
 72
     2
  1
\W0.50;\fMS Gothic|b0|i0|c128;押さえコンクリート
  7
KANJISTD
210
0.0
220
0.0
230
1.0
 11
1.000001
 21
0.0
 31
0.0
 73
     1
 44
1.0
  0
MTEXT
  5
168
100
AcDbEntity
  8
LAYER_1
 62
     7
100
AcDbMText
 10
77.818161
 20
200.028225
 30
0.0
 40
2.58877
 41
0.0
 71
     1
 72
     2
  1
\W0.50;\fMS Gothic|b0|i0|c128;金属笠木
  7
KANJISTD
210
0.0
220
0.0
230
1.0
 11
1.000001
 21
0.0
 31
0.0
 73
     1
 44
1.0
  0
MTEXT
  5
167
100
AcDbEntity
  8
LAYER_1
 62
     7
100
AcDbMText
 10
82.374817
 20
193.440686
 30
0.0
 40
2.58877
 41
0.0
 71
     1
 72
     2
  1
\W0.50;\fMS Gothic|b0|i0|c128;上部ホルダー取付部材
  7
KANJISTD
210
0.0
220
0.0
230
1.0
 11
1.000001
 21
0.0
 31
0.0
 73
     1
 44
1.0
  0
MTEXT
  5
166
100
AcDbEntity
  8
LAYER_1
 62
     7
100
AcDbMText
 10
85.374978
 20
186.519661
 30
0.0
 40
2.58877
 41
0.0
 71
     1
 72
     2
  1
\W0.50;\fMS Gothic|b0|i0|c128;上部ホルダー
  7
KANJISTD
210
0.0
220
0.0
230
1.0
 11
1.000001
 21
0.0
 31
0.0
 73
     1
 44
1.0
  0
MTEXT
  5
165
100
AcDbEntity
  8
LAYER_1
 62
     7
100
AcDbMText
 10
83.650583
 20
162.62401
 30
0.0
 40
2.58877
 41
0.0
 71
     1
 72
     2
  1
\W0.50;\fMS Gothic|b0|i0|c128;10程度
  7
KANJISTD
210
0.0
220
0.0
230
1.0
 11
0.0
 21
1.0
 31
0.0
 73
     1
 44
1.0
  0
LINE
  5
164
100
AcDbEntity
  8
LAYER_1
 62
     7
100
AcDbLine
 10
49.065394
 20
174.062416
 30
0.0
 11
49.065394
 21
180.480801
 31
0.0
  0
LINE
  5
163
100
AcDbEntity
  8
LAYER_1
 62
     7
100
AcDbLine
 10
44.910437
 20
180.521281
 30
0.0
 11
53.359017
 21
180.521281
 31
0.0
  0
SPLINE
  5
162
100
AcDbEntity
  8
LAYER_1
 62
     7
100
AcDbSpline
210
0.0
220
0.0
230
1.0
 70
     8
 71
     3
 72
    23
 73
    19
 74
     0
 42
0.00000001
 43
0.00000001
 40
0.0
 40
0.0
 40
0.0
 40
0.0
 40
1.0
 40
1.0
 40
1.0
 40
2.0
 40
2.0
 40
2.0
 40
3.0
 40
3.0
 40
3.0
 40
4.0
 40
4.0
 40
4.0
 40
5.0
 40
5.0
 40
5.0
 40
6.0
 40
6.0
 40
6.0
 40
6.0
 10
195.41408420138887
 20
92.464295789930546
 30
0.0
 10
195.41408420138887
 20
92.464295789930546
 30
0.0
 10
65.219791666666666
 20
92.464295789930546
 30
0.0
 10
65.219791666666666
 20
92.464295789930546
 30
0.0
 10
65.219791666666666
 20
92.464295789930546
 30
0.0
 10
65.221169704861111
 20
176.08089735243053
 30
0.0
 10
65.221169704861111
 20
176.08089735243053
 30
0.0
 10
65.17965630425347
 20
177.2052042643229
 30
0.0
 10
64.324411349826377
 20
178.13124593098956
 30
0.0
 10
63.20716688368055
 20
178.26198730468749
 30
0.0
 10
63.20716688368055
 20
178.26198730468749
 30
0.0
 10
41.644658745659719
 20
178.27249484592014
 30
0.0
 10
41.644658745659719
 20
178.27249484592014
 30
0.0
 10
41.644658745659719
 20
178.27249484592014
 30
0.0
 10
39.043439398871527
 20
175.70589870876734
 30
0.0
 10
39.043439398871527
 20
175.70589870876734
 30
0.0
 10
39.043439398871527
 20
175.70589870876734
 30
0.0
 10
39.049985080295137
 20
68.375499131944437
 30
0.0
 10
39.049985080295137
 20
68.375499131944437
 30
0.0
  0
LINE
  5
161
100
AcDbEntity
  8
LAYER_1
 62
     7
100
AcDbLine
 10
43.780446
 20
178.099379
 30
0.0
 11
44.28653
 21
178.604774
 31
0.0
  0
LINE
  5
160
100
AcDbEntity
  8
LAYER_1
 62
     7
100
AcDbLine
 10
43.168424
 20
178.279041
 30
0.0
 11
45.033427
 21
180.143354
 31
0.0
  0
LINE
  5
15F
100
AcDbEntity
  8
LAYER_1
 62
     7
100
AcDbLine
 10
42.408609
 20
178.309357
 30
0.0
 11
44.234337
 21
180.13543
 31
0.0
  0
LINE
  5
15E
100
AcDbEntity
  8
LAYER_1
 62
     7
100
AcDbLine
 10
41.724585
 20
178.4165
 30
0.0
 11
43.454712
 21
180.147144
 31
0.0
  0
SPLINE
  5
15D
100
AcDbEntity
  8
LAYER_1
 62
     7
100
AcDbSpline
210
0.0
220
0.0
230
1.0
 70
     8
 71
     3
 72
    11
 73
     7
 74
     0
 42
0.00000001
 43
0.00000001
 40
0.0
 40
0.0
 40
0.0
 40
0.0
 40
1.0
 40
1.0
 40
1.0
 40
2.0
 40
2.0
 40
2.0
 40
2.0
 10
41.298082139756943
 20
178.05287000868054
 30
0.0
 10
41.554224989149304
 20
179.29637722439236
 30
0.0
 10
42.678704155815971
 20
180.16729736328122
 30
0.0
 10
43.946499294704857
 20
180.1040798611111
 30
0.0
 10
44.32701009114583
 20
180.10752495659722
 30
0.0
 10
44.70683186848958
 20
180.07290174696178
 30
0.0
 10
45.080280219184026
 20
180.00072699652776
 30
0.0
  0
POLYLINE
  5
14A
100
AcDbEntity
  8
LAYER_1
 62
     7
100
AcDb2dPolyline
 66
     1
 10
0.0
 20
0.0
 30
0.0
  0
VERTEX
  5
14B
100
AcDbEntity
  8
LAYER_1
 62
     7
100
AcDbVertex
100
AcDb2dVertex
 10
80.903417
 20
172.395851
 30
0.0
  0
VERTEX
  5
14C
100
AcDbEntity
  8
LAYER_1
 62
     7
100
AcDbVertex
100
AcDb2dVertex
 10
80.903417
 20
181.525699
 30
0.0
  0
VERTEX
  5
14D
100
AcDbEntity
  8
LAYER_1
 62
     7
100
AcDbVertex
100
AcDb2dVertex
 10
41.06795
 20
183.626173
 30
0.0
  0
VERTEX
  5
14E
100
AcDbEntity
  8
LAYER_1
 62
     7
100
AcDbVertex
100
AcDb2dVertex
 10
40.730503
 20
185.502889
 30
0.0
  0
VERTEX
  5
14F
100
AcDbEntity
  8
LAYER_1
 62
     7
100
AcDbVertex
100
AcDb2dVertex
 10
36.898523
 20
185.927842
 30
0.0
  0
VERTEX
  5
150
100
AcDbEntity
  8
LAYER_1
 62
     7
100
AcDbVertex
100
AcDb2dVertex
 10
36.897317
 20
172.390856
 30
0.0
  0
VERTEX
  5
151
100
AcDbEntity
  8
LAYER_1
 62
     7
100
AcDbVertex
100
AcDb2dVertex
 10
37.612691
 20
172.390856
 30
0.0
  0
VERTEX
  5
152
100
AcDbEntity
  8
LAYER_1
 62
     7
100
AcDbVertex
100
AcDb2dVertex
 10
37.612691
 20
172.033599
 30
0.0
  0
VERTEX
  5
153
100
AcDbEntity
  8
LAYER_1
 62
     7
100
AcDbVertex
100
AcDb2dVertex
 10
36.541611
 20
172.033599
 30
0.0
  0
VERTEX
  5
154
100
AcDbEntity
  8
LAYER_1
 62
     7
100
AcDbVertex
100
AcDb2dVertex
 10
36.541611
 20
186.321616
 30
0.0
  0
VERTEX
  5
155
100
AcDbEntity
  8
LAYER_1
 62
     7
100
AcDbVertex
100
AcDb2dVertex
 10
41.014379
 20
185.827245
 30
0.0
  0
VERTEX
  5
156
100
AcDbEntity
  8
LAYER_1
 62
     7
100
AcDbVertex
100
AcDb2dVertex
 10
41.360955
 20
183.968788
 30
0.0
  0
VERTEX
  5
157
100
AcDbEntity
  8
LAYER_1
 62
     7
100
AcDbVertex
100
AcDb2dVertex
 10
81.260501
 20
181.8566
 30
0.0
  0
VERTEX
  5
158
100
AcDbEntity
  8
LAYER_1
 62
     7
100
AcDbVertex
100
AcDb2dVertex
 10
81.260501
 20
172.033599
 30
0.0
  0
VERTEX
  5
159
100
AcDbEntity
  8
LAYER_1
 62
     7
100
AcDbVertex
100
AcDb2dVertex
 10
80.156692
 20
172.033599
 30
0.0
  0
VERTEX
  5
15A
100
AcDbEntity
  8
LAYER_1
 62
     7
100
AcDbVertex
100
AcDb2dVertex
 10
80.156692
 20
172.390856
 30
0.0
  0
VERTEX
  5
15B
100
AcDbEntity
  8
LAYER_1
 62
     7
100
AcDbVertex
100
AcDb2dVertex
 10
80.903417
 20
172.390856
 30
0.0
  0
SEQEND
  5
15C
100
AcDbEntity
  8
LAYER_1
 62
     7
  0
SPLINE
  5
149
100
AcDbEntity
  8
LAYER_1
 62
     7
100
AcDbSpline
210
0.0
220
0.0
230
1.0
 70
     8
 71
     3
 72
    50
 73
    46
 74
     0
 42
0.00000001
 43
0.00000001
 40
0.0
 40
0.0
 40
0.0
 40
0.0
 40
1.0
 40
1.0
 40
1.0
 40
2.0
 40
2.0
 40
2.0
 40
3.0
 40
3.0
 40
3.0
 40
4.0
 40
4.0
 40
4.0
 40
5.0
 40
5.0
 40
5.0
 40
6.0
 40
6.0
 40
6.0
 40
7.0
 40
7.0
 40
7.0
 40
8.0
 40
8.0
 40
8.0
 40
9.0
 40
9.0
 40
9.0
 40
10.0
 40
10.0
 40
10.0
 40
11.0
 40
11.0
 40
11.0
 40
12.0
 40
12.0
 40
12.0
 40
13.0
 40
13.0
 40
13.0
 40
14.0
 40
14.0
 40
14.0
 40
15.0
 40
15.0
 40
15.0
 40
15.0
 10
195.41408420138887
 20
94.399750434027766
 30
0.0
 10
195.41408420138887
 20
94.399750434027766
 30
0.0
 10
71.606654188368054
 20
94.399750434027766
 30
0.0
 10
71.606654188368054
 20
94.399750434027766
 30
0.0
 10
71.606654188368054
 20
94.399750434027766
 30
0.0
 10
67.044314236111106
 20
98.865972222222211
 30
0.0
 10
67.044314236111106
 20
98.865972222222211
 30
0.0
 10
67.044314236111106
 20
98.865972222222211
 30
0.0
 10
67.046898057725684
 20
170.14206949869791
 30
0.0
 10
67.046898057725684
 20
170.14206949869791
 30
0.0
 10
67.046898057725684
 20
170.14206949869791
 30
0.0
 10
67.050859917534723
 20
176.10380723741318
 30
0.0
 10
67.050859917534723
 20
176.10380723741318
 30
0.0
 10
66.961976453993046
 20
178.31814236111109
 30
0.0
 10
65.15106201171875
 20
180.0730740017361
 30
0.0
 10
62.935004340277771
 20
180.09236653645831
 30
0.0
 10
62.935004340277771
 20
180.09236653645831
 30
0.0
 10
45.464925130208329
 20
180.07272949218748
 30
0.0
 10
45.464925130208329
 20
180.07272949218748
 30
0.0
 10
45.317302788628467
 20
180.06084391276039
 30
0.0
 10
45.175364854600687
 20
180.01089002821178
 30
0.0
 10
45.052891710069439
 20
179.9275187174479
 30
0.0
 10
44.772460937499993
 20
179.66259087456595
 30
0.0
 10
44.553697374131943
 20
179.33944091796874
 30
0.0
 10
44.412103949652774
 20
178.98046196831595
 30
0.0
 10
44.338206651475687
 20
178.7799574110243
 30
0.0
 10
44.28050130208333
 20
178.57394070095484
 30
0.0
 10
44.239504665798606
 20
178.36430664062499
 30
0.0
 10
44.239504665798606
 20
178.36430664062499
 30
0.0
 10
62.935004340277771
 20
178.32951117621525
 30
0.0
 10
62.935004340277771
 20
178.32951117621525
 30
0.0
 10
64.2475857204861
 20
178.31952039930553
 30
0.0
 10
65.308847384982627
 20
177.25739746093748
 30
0.0
 10
65.317804633246524
 20
175.94481608072914
 30
0.0
 10
65.317804633246524
 20
175.94481608072914
 30
0.0
 10
65.323144531249994
 20
170.69242350260416
 30
0.0
 10
65.323144531249994
 20
170.69242350260416
 30
0.0
 10
65.323144531249994
 20
170.69242350260416
 30
0.0
 10
65.333652072482636
 20
98.158694118923606
 30
0.0
 10
65.333652072482636
 20
98.158694118923606
 30
0.0
 10
65.333652072482636
 20
98.158694118923606
 30
0.0
 10
70.852006022135413
 20
92.689260525173609
 30
0.0
 10
70.852006022135413
 20
92.689260525173609
 30
0.0
 10
70.852006022135413
 20
92.689260525173609
 30
0.0
 10
195.41408420138887
 20
92.689260525173609
 30
0.0
 10
195.41408420138887
 20
92.689260525173609
 30
0.0
  0
MTEXT
  5
148
100
AcDbEntity
  8
LAYER_1
 62
     7
100
AcDbMText
 10
157.891357
 20
124.712112
 30
0.0
 40
2.58877
 41
0.0
 71
     1
 72
     2
  1
\W0.50;\fMS Gothic|b0|i0|c128;乾式保護工法  600以下
  7
KANJISTD
210
0.0
220
0.0
230
1.0
 11
0.0
 21
1.0
 31
0.0
 73
     1
 44
1.0
  0
MTEXT
  5
147
100
AcDbEntity
  8
LAYER_1
 62
     7
100
AcDbMText
 10
31.291802
 20
140.91142
 30
0.0
 40
2.58877
 41
0.0
 71
     1
 72
     2
  1
\W0.50;\fMS Gothic|b0|i0|c128;(20)
  7
STD
210
0.0
220
0.0
230
1.0
 11
1.000001
 21
0.0
 31
0.0
 73
     1
 44
1.0
  0
MTEXT
  5
146
100
AcDbEntity
  8
LAYER_1
 62
     7
100
AcDbMText
 10
49.362362
 20
140.757769
 30
0.0
 40
2.58877
 41
0.0
 71
     1
 72
     2
  1
\W0.50;\fMS Gothic|b0|i0|c128;(180)
  7
STD
210
0.0
220
0.0
230
1.0
 11
1.000001
 21
0.0
 31
0.0
 73
     1
 44
1.0
  0
LINE
  5
145
100
AcDbEntity
  8
LAYER_1
 62
     7
100
AcDbLine
 10
65.095596
 20
137.784182
 30
0.0
 11
29.970953
 21
137.784182
 31
0.0
  0
MTEXT
  5
144
100
AcDbEntity
  8
LAYER_1
 62
     7
100
AcDbMText
 10
124.392407
 20
121.956505
 30
0.0
 40
2.58877
 41
0.0
 71
     1
 72
     2
  1
\W0.50;\fMS Gothic|b0|i0|c128;伸縮目地
  7
KANJISTD
210
0.0
220
0.0
230
1.0
 11
1.000001
 21
0.0
 31
0.0
 73
     1
 44
1.0
  0
MTEXT
  5
143
100
AcDbEntity
  8
LAYER_1
 62
     7
100
AcDbMText
 10
120.990375
 20
115.718126
 30
0.0
 40
2.58877
 41
0.0
 71
     1
 72
     2
  1
\W0.50;\fMS Gothic|b0|i0|c128;溶接金網
  7
KANJISTD
210
0.0
220
0.0
230
1.0
 11
1.000001
 21
0.0
 31
0.0
 73
     1
 44
1.0
  0
POLYLINE
  5
13E
100
AcDbEntity
  8
LAYER_1
 62
     7
100
AcDb2dPolyline
 66
     1
 10
0.0
 20
0.0
 30
0.0
  0
VERTEX
  5
13F
100
AcDbEntity
  8
LAYER_1
 62
     7
100
AcDbVertex
100
AcDb2dVertex
 10
76.224116
 20
103.517196
 30
0.0
  0
VERTEX
  5
140
100
AcDbEntity
  8
LAYER_1
 62
     7
100
AcDbVertex
100
AcDb2dVertex
 10
88.078345
 20
103.517196
 30
0.0
  0
VERTEX
  5
141
100
AcDbEntity
  8
LAYER_1
 62
     7
100
AcDbVertex
100
AcDb2dVertex
 10
88.078345
 20
118.098907
 30
0.0
  0
SEQEND
  5
142
100
AcDbEntity
  8
LAYER_1
 62
     7
  0
MTEXT
  5
13D
100
AcDbEntity
  8
LAYER_1
 62
     7
100
AcDbMText
 10
90.684732
 20
128.521479
 30
0.0
 40
2.58877
 41
0.0
 71
     1
 72
     2
  1
\W0.50;\fMS Gothic|b0|i0|c128;アンカー
  7
KANJISTD
210
0.0
220
0.0
230
1.0
 11
1.000001
 21
0.0
 31
0.0
 73
     1
 44
1.0
  0
MTEXT
  5
13C
100
AcDbEntity
  8
LAYER_1
 62
     7
100
AcDbMText
 10
84.978151
 20
111.408876
 30
0.0
 40
2.58877
 41
0.0
 71
     1
 72
     2
  1
\W0.50;\fMS Gothic|b0|i0|c128;50以下
  7
KANJISTD
210
0.0
220
0.0
230
1.0
 11
0.0
 21
1.0
 31
0.0
 73
     1
 44
1.0
  0
MTEXT
  5
13B
100
AcDbEntity
  8
LAYER_1
 62
     7
100
AcDbMText
 10
68.88434
 20
89.637031
 30
0.0
 40
2.58877
 41
0.0
 71
     1
 72
     2
  1
\W0.50;\fMS Gothic|b0|i0|c128;30以上
  7
KANJISTD
210
0.0
220
0.0
230
1.0
 11
1.000001
 21
0.0
 31
0.0
 73
     1
 44
1.0
  0
MTEXT
  5
13A
100
AcDbEntity
  8
LAYER_1
 62
     7
100
AcDbMText
 10
102.200308
 20
78.615481
 30
0.0
 40
2.58877
 41
0.0
 71
     1
 72
     2
  1
\W0.50;\fMS Gothic|b0|i0|c128;600程度
  7
KANJISTD
210
0.0
220
0.0
230
1.0
 11
1.000001
 21
0.0
 31
0.0
 73
     1
 44
1.0
  0
MTEXT
  5
139
100
AcDbEntity
  8
LAYER_1
 62
     7
100
AcDbMText
 10
141.301969
 20
114.333887
 30
0.0
 40
2.58877
 41
0.0
 71
     1
 72
     2
  1
\W0.50;\fMS Gothic|b0|i0|c128;(25)
  7
STD
210
0.0
220
0.0
230
1.0
 11
1.000001
 21
0.0
 31
0.0
 73
     1
 44
1.0
  0
MTEXT
  5
138
100
AcDbEntity
  8
LAYER_1
 62
     7
100
AcDbMText
 10
115.45226
 20
99.595643
 30
0.0
 40
2.58877
 41
0.0
 71
     1
 72
     2
  1
\W0.50;\fMS Gothic|b0|i0|c128;(80)
  7
STD
210
0.0
220
0.0
230
1.0
 11
0.0
 21
1.0
 31
0.0
 73
     1
 44
1.0
  0
LINE
  5
137
100
AcDbEntity
  8
LAYER_1
 62
     7
100
AcDbLine
 10
118.667348
 20
97.788346
 30
0.0
 11
118.667348
 21
108.515685
 31
0.0
  0
POLYLINE
  5
131
100
AcDbEntity
  8
LAYER_1
 62
     7
100
AcDb2dPolyline
 66
     1
 10
0.0
 20
0.0
 30
0.0
  0
VERTEX
  5
132
100
AcDbEntity
  8
LAYER_1
 62
     7
100
AcDbVertex
100
AcDb2dVertex
 10
142.944591
 20
98.605523
 30
0.0
  0
VERTEX
  5
133
100
AcDbEntity
  8
LAYER_1
 62
     7
100
AcDbVertex
100
AcDb2dVertex
 10
142.944591
 20
75.767296
 30
0.0
  0
VERTEX
  5
134
100
AcDbEntity
  8
LAYER_1
 62
     7
100
AcDbVertex
100
AcDb2dVertex
 10
67.096335
 20
75.767296
 30
0.0
  0
VERTEX
  5
135
100
AcDbEntity
  8
LAYER_1
 62
     7
100
AcDbVertex
100
AcDb2dVertex
 10
67.096335
 20
98.865972
 30
0.0
  0
SEQEND
  5
136
100
AcDbEntity
  8
LAYER_1
 62
     7
  0
POLYLINE
  5
12B
100
AcDbEntity
  8
LAYER_1
 62
     7
100
AcDb2dPolyline
 66
     1
 10
0.0
 20
0.0
 30
0.0
  0
VERTEX
  5
12C
100
AcDbEntity
  8
LAYER_1
 62
     7
100
AcDbVertex
100
AcDb2dVertex
 10
144.71158
 20
109.034516
 30
0.0
  0
VERTEX
  5
12D
100
AcDbEntity
  8
LAYER_1
 62
     7
100
AcDbVertex
100
AcDb2dVertex
 10
144.71158
 20
111.274173
 30
0.0
  0
VERTEX
  5
12E
100
AcDbEntity
  8
LAYER_1
 62
     7
100
AcDbVertex
100
AcDb2dVertex
 10
141.309893
 20
111.274173
 30
0.0
  0
VERTEX
  5
12F
100
AcDbEntity
  8
LAYER_1
 62
     7
100
AcDbVertex
100
AcDb2dVertex
 10
141.309893
 20
109.034516
 30
0.0
  0
SEQEND
  5
130
100
AcDbEntity
  8
LAYER_1
 62
     7
  0
POLYLINE
  5
125
100
AcDbEntity
  8
LAYER_1
 62
     7
100
AcDb2dPolyline
 66
     1
 10
0.0
 20
0.0
 30
0.0
 70
     1
  0
VERTEX
  5
126
100
AcDbEntity
  8
LAYER_1
 62
     7
100
AcDbVertex
100
AcDb2dVertex
 10
144.655425
 20
98.352308
 30
0.0
  0
VERTEX
  5
127
100
AcDbEntity
  8
LAYER_1
 62
     7
100
AcDbVertex
100
AcDb2dVertex
 10
144.655425
 20
108.415777
 30
0.0
  0
VERTEX
  5
128
100
AcDbEntity
  8
LAYER_1
 62
     7
100
AcDbVertex
100
AcDb2dVertex
 10
141.385685
 20
108.415777
 30
0.0
  0
VERTEX
  5
129
100
AcDbEntity
  8
LAYER_1
 62
     7
100
AcDbVertex
100
AcDb2dVertex
 10
141.385685
 20
98.352308
 30
0.0
  0
SEQEND
  5
12A
100
AcDbEntity
  8
LAYER_1
 62
     7
  0
LINE
  5
124
100
AcDbEntity
  8
LAYER_1
 62
     7
100
AcDbLine
 10
195.414084
 20
98.190734
 30
0.0
 11
72.310832
 21
98.190734
 31
0.0
  0
POLYLINE
  5
11E
100
AcDbEntity
  8
LAYER_1
 62
     7
100
AcDb2dPolyline
 66
     1
 10
0.0
 20
0.0
 30
0.0
  0
VERTEX
  5
11F
100
AcDbEntity
  8
LAYER_1
 62
     7
100
AcDbVertex
100
AcDb2dVertex
 10
195.414084
 20
97.798337
 30
0.0
  0
VERTEX
  5
120
100
AcDbEntity
  8
LAYER_1
 62
     7
100
AcDbVertex
100
AcDb2dVertex
 10
75.705973
 20
97.798337
 30
0.0
  0
VERTEX
  5
121
100
AcDbEntity
  8
LAYER_1
 62
     7
100
AcDbVertex
100
AcDb2dVertex
 10
75.705973
 20
94.528597
 30
0.0
  0
VERTEX
  5
122
100
AcDbEntity
  8
LAYER_1
 62
     7
100
AcDbVertex
100
AcDb2dVertex
 10
195.414084
 20
94.528597
 30
0.0
  0
SEQEND
  5
123
100
AcDbEntity
  8
LAYER_1
 62
     7
  0
POLYLINE
  5
119
100
AcDbEntity
  8
LAYER_1
 62
     7
100
AcDb2dPolyline
 66
     1
 10
0.0
 20
0.0
 30
0.0
  0
VERTEX
  5
11A
100
AcDbEntity
  8
LAYER_1
 62
     7
100
AcDbVertex
100
AcDb2dVertex
 10
77.990933
 20
172.574651
 30
0.0
  0
VERTEX
  5
11B
100
AcDbEntity
  8
LAYER_1
 62
     7
100
AcDbVertex
100
AcDb2dVertex
 10
86.795391
 20
172.578441
 30
0.0
  0
VERTEX
  5
11C
100
AcDbEntity
  8
LAYER_1
 62
     7
100
AcDbVertex
100
AcDb2dVertex
 10
86.795391
 20
179.578358
 30
0.0
  0
SEQEND
  5
11D
100
AcDbEntity
  8
LAYER_1
 62
     7
  0
POLYLINE
  5
114
100
AcDbEntity
  8
LAYER_1
 62
     7
100
AcDb2dPolyline
 66
     1
 10
0.0
 20
0.0
 30
0.0
  0
VERTEX
  5
115
100
AcDbEntity
  8
LAYER_1
 62
     7
100
AcDbVertex
100
AcDb2dVertex
 10
85.759451
 20
174.492708
 30
0.0
  0
VERTEX
  5
116
100
AcDbEntity
  8
LAYER_1
 62
     7
100
AcDbVertex
100
AcDb2dVertex
 10
161.216688
 20
174.495292
 30
0.0
  0
VERTEX
  5
117
100
AcDbEntity
  8
LAYER_1
 62
     7
100
AcDbVertex
100
AcDb2dVertex
 10
161.216688
 20
108.40992
 30
0.0
  0
SEQEND
  5
118
100
AcDbEntity
  8
LAYER_1
 62
     7
  0
LINE
  5
113
100
AcDbEntity
  8
LAYER_1
 62
     7
100
AcDbLine
 10
76.760173
 20
174.488057
 30
0.0
 11
86.810894
 21
174.488574
 31
0.0
  0
MTEXT
  5
112
100
AcDbEntity
  8
LAYER_1
 62
     7
100
AcDbMText
 10
91.965101
 20
135.003771
 30
0.0
 40
2.58877
 41
0.0
 71
     1
 72
     2
  1
\W0.50;\fMS Gothic|b0|i0|c128;下部ホルダー
  7
KANJISTD
210
0.0
220
0.0
230
1.0
 11
1.000001
 21
0.0
 31
0.0
 73
     1
 44
1.0
  0
INSERT
  5
103
100
AcDbEntity
  8
LAYER_1
 62
     7
100
AcDbBlockReference
  2
AI9-BLK1
 10
133.729133
 20
98.12631
 30
0.0
  0
POLYLINE
  5
FD
100
AcDbEntity
  8
LAYER_1
 62
     7
100
AcDb2dPolyline
 66
     1
 10
0.0
 20
0.0
 30
0.0
  0
VERTEX
  5
FE
100
AcDbEntity
  8
LAYER_1
 62
     7
100
AcDbVertex
100
AcDb2dVertex
 10
75.494444
 20
103.102062
 30
0.0
  0
VERTEX
  5
FF
100
AcDbEntity
  8
LAYER_1
 62
     7
100
AcDbVertex
100
AcDb2dVertex
 10
75.494444
 20
86.609356
 30
0.0
  0
VERTEX
  5
100
100
AcDbEntity
  8
LAYER_1
 62
     7
100
AcDbVertex
100
AcDb2dVertex
 10
61.588144
 20
86.609356
 30
0.0
  0
SEQEND
  5
101
100
AcDbEntity
  8
LAYER_1
 62
     7
  0
LINE
  5
FC
100
AcDbEntity
  8
LAYER_1
 62
     7
100
AcDbLine
 10
59.740023
 20
180.503022
 30
0.0
 11
59.740023
 21
174.056042
 31
0.0
  0
LINE
  5
FB
100
AcDbEntity
  8
LAYER_1
 62
     7
100
AcDbLine
 10
75.468089
 20
109.822754
 30
0.0
 11
75.468089
 21
103.375947
 31
0.0
  0
POLYLINE
  5
F5
100
AcDbEntity
  8
LAYER_1
 62
     7
100
AcDb2dPolyline
 66
     1
 10
0.0
 20
0.0
 30
0.0
 70
     1
  0
VERTEX
  5
F6
100
AcDbEntity
  8
LAYER_1
 62
     7
100
AcDbVertex
100
AcDb2dVertex
 10
76.420142
 20
110.183111
 30
0.0
  0
VERTEX
  5
F7
100
AcDbEntity
  8
LAYER_1
 62
     7
100
AcDbVertex
100
AcDb2dVertex
 10
76.420142
 20
174.475655
 30
0.0
  0
VERTEX
  5
F8
100
AcDbEntity
  8
LAYER_1
 62
     7
100
AcDbVertex
100
AcDb2dVertex
 10
74.460916
 20
174.475655
 30
0.0
  0
VERTEX
  5
F9
100
AcDbEntity
  8
LAYER_1
 62
     7
100
AcDbVertex
100
AcDb2dVertex
 10
74.460916
 20
110.183111
 30
0.0
  0
SEQEND
  5
FA
100
AcDbEntity
  8
LAYER_1
 62
     7
  0
POLYLINE
  5
EB
100
AcDbEntity
  8
LAYER_1
 62
     7
100
AcDb2dPolyline
 66
     1
 10
0.0
 20
0.0
 30
0.0
 70
     1
  0
VERTEX
  5
EC
100
AcDbEntity
  8
LAYER_1
 62
     7
100
AcDbVertex
100
AcDb2dVertex
 10
77.37495
 20
112.366612
 30
0.0
  0
VERTEX
  5
ED
100
AcDbEntity
  8
LAYER_1
 62
     7
100
AcDbVertex
100
AcDb2dVertex
 10
77.373572
 20
109.154405
 30
0.0
  0
VERTEX
  5
EE
100
AcDbEntity
  8
LAYER_1
 62
     7
100
AcDbVertex
100
AcDb2dVertex
 10
73.646151
 20
109.154405
 30
0.0
  0
VERTEX
  5
EF
100
AcDbEntity
  8
LAYER_1
 62
     7
100
AcDbVertex
100
AcDb2dVertex
 10
73.646151
 20
112.366612
 30
0.0
  0
VERTEX
  5
F0
100
AcDbEntity
  8
LAYER_1
 62
     7
100
AcDbVertex
100
AcDb2dVertex
 10
74.073859
 20
112.366612
 30
0.0
  0
VERTEX
  5
F1
100
AcDbEntity
  8
LAYER_1
 62
     7
100
AcDbVertex
100
AcDb2dVertex
 10
74.073859
 20
109.581597
 30
0.0
  0
VERTEX
  5
F2
100
AcDbEntity
  8
LAYER_1
 62
     7
100
AcDbVertex
100
AcDb2dVertex
 10
76.947241
 20
109.581597
 30
0.0
  0
VERTEX
  5
F3
100
AcDbEntity
  8
LAYER_1
 62
     7
100
AcDbVertex
100
AcDb2dVertex
 10
76.947241
 20
112.366612
 30
0.0
  0
SEQEND
  5
F4
100
AcDbEntity
  8
LAYER_1
 62
     7
  0
LINE
  5
EA
100
AcDbEntity
  8
LAYER_1
 62
     7
100
AcDbLine
 10
182.873248
 20
108.39924
 30
0.0
 11
193.131708
 21
98.141469
 31
0.0
  0
LINE
  5
E9
100
AcDbEntity
  8
LAYER_1
 62
     7
100
AcDbLine
 10
181.511746
 20
108.452984
 30
0.0
 11
191.820161
 21
98.144914
 31
0.0
  0
LINE
  5
E8
100
AcDbEntity
  8
LAYER_1
 62
     7
100
AcDbLine
 10
180.339724
 20
108.318281
 30
0.0
 11
190.496555
 21
98.160072
 31
0.0
  0
LINE
  5
E7
100
AcDbEntity
  8
LAYER_1
 62
     7
100
AcDbLine
 10
156.71636
 20
108.39924
 30
0.0
 11
166.960696
 21
98.15456
 31
0.0
  0
LINE
  5
E6
100
AcDbEntity
  8
LAYER_1
 62
     7
100
AcDbLine
 10
155.354858
 20
108.452984
 30
0.0
 11
165.650182
 21
98.158005
 31
0.0
  0
LINE
  5
E5
100
AcDbEntity
  8
LAYER_1
 62
     7
100
AcDbLine
 10
154.181803
 20
108.318281
 30
0.0
 11
164.326576
 21
98.173164
 31
0.0
  0
LINE
  5
E4
100
AcDbEntity
  8
LAYER_1
 62
     7
100
AcDbLine
 10
130.559473
 20
108.39924
 30
0.0
 11
140.767291
 21
98.201758
 31
0.0
  0
LINE
  5
E3
100
AcDbEntity
  8
LAYER_1
 62
     7
100
AcDbLine
 10
129.197971
 20
108.452984
 30
0.0
 11
139.456776
 21
98.205203
 31
0.0
  0
LINE
  5
E2
100
AcDbEntity
  8
LAYER_1
 62
     7
100
AcDbLine
 10
128.024916
 20
108.318281
 30
0.0
 11
138.133171
 21
98.220361
 31
0.0
  0
LINE
  5
E1
100
AcDbEntity
  8
LAYER_1
 62
     7
100
AcDbLine
 10
104.402757
 20
108.39924
 30
0.0
 11
114.623494
 21
98.183154
 31
0.0
  0
LINE
  5
E0
100
AcDbEntity
  8
LAYER_1
 62
     7
100
AcDbLine
 10
103.041256
 20
108.452984
 30
0.0
 11
113.311602
 21
98.186599
 31
0.0
  0
LINE
  5
DF
100
AcDbEntity
  8
LAYER_1
 62
     7
100
AcDbLine
 10
101.868201
 20
108.318281
 30
0.0
 11
111.989374
 21
98.201758
 31
0.0
  0
LINE
  5
DE
100
AcDbEntity
  8
LAYER_1
 62
     7
100
AcDbLine
 10
78.24587
 20
108.39924
 30
0.0
 11
88.458856
 21
98.144225
 31
0.0
  0
LINE
  5
DD
100
AcDbEntity
  8
LAYER_1
 62
     7
100
AcDbLine
 10
76.884368
 20
108.452984
 30
0.0
 11
87.147135
 21
98.14767
 31
0.0
  0
LINE
  5
DC
100
AcDbEntity
  8
LAYER_1
 62
     7
100
AcDbLine
 10
195.382734
 20
95.983805
 30
0.0
 11
194.005385
 21
94.606456
 31
0.0
  0
LINE
  5
DB
100
AcDbEntity
  8
LAYER_1
 62
     7
100
AcDbLine
 10
193.955775
 20
97.749761
 30
0.0
 11
195.40995
 21
96.295242
 31
0.0
  0
LINE
  5
DA
100
AcDbEntity
  8
LAYER_1
 62
     7
100
AcDbLine
 10
194.532484
 20
97.749761
 30
0.0
 11
191.389868
 21
94.606456
 31
0.0
  0
LINE
  5
D9
100
AcDbEntity
  8
LAYER_1
 62
     7
100
AcDbLine
 10
191.339914
 20
97.749761
 30
0.0
 11
194.482875
 21
94.606456
 31
0.0
  0
LINE
  5
D8
100
AcDbEntity
  8
LAYER_1
 62
     7
100
AcDbLine
 10
191.916623
 20
97.749761
 30
0.0
 11
188.772974
 21
94.606456
 31
0.0
  0
LINE
  5
D7
100
AcDbEntity
  8
LAYER_1
 62
     7
100
AcDbLine
 10
188.724398
 20
97.749761
 30
0.0
 11
191.867014
 21
94.606456
 31
0.0
  0
LINE
  5
D6
100
AcDbEntity
  8
LAYER_1
 62
     7
100
AcDbLine
 10
189.301107
 20
97.749761
 30
0.0
 11
186.158491
 21
94.606456
 31
0.0
  0
LINE
  5
D5
100
AcDbEntity
  8
LAYER_1
 62
     7
100
AcDbLine
 10
186.108537
 20
97.749761
 30
0.0
 11
189.251497
 21
94.606456
 31
0.0
  0
LINE
  5
D4
100
AcDbEntity
  8
LAYER_1
 62
     7
100
AcDbLine
 10
186.68559
 20
97.749761
 30
0.0
 11
183.54263
 21
94.606456
 31
0.0
  0
LINE
  5
D3
100
AcDbEntity
  8
LAYER_1
 62
     7
100
AcDbLine
 10
183.49302
 20
97.749761
 30
0.0
 11
186.635636
 21
94.606456
 31
0.0
  0
LINE
  5
D2
100
AcDbEntity
  8
LAYER_1
 62
     7
100
AcDbLine
 10
184.069729
 20
97.749761
 30
0.0
 11
180.925735
 21
94.606456
 31
0.0
  0
LINE
  5
D1
100
AcDbEntity
  8
LAYER_1
 62
     7
100
AcDbLine
 10
180.877159
 20
97.749761
 30
0.0
 11
184.02012
 21
94.606456
 31
0.0
  0
LINE
  5
D0
100
AcDbEntity
  8
LAYER_1
 62
     7
100
AcDbLine
 10
181.453868
 20
97.749761
 30
0.0
 11
178.311252
 21
94.606456
 31
0.0
  0
LINE
  5
CF
100
AcDbEntity
  8
LAYER_1
 62
     7
100
AcDbLine
 10
178.261643
 20
97.749761
 30
0.0
 11
181.404259
 21
94.606456
 31
0.0
  0
LINE
  5
CE
100
AcDbEntity
  8
LAYER_1
 62
     7
100
AcDbLine
 10
178.838352
 20
97.749761
 30
0.0
 11
175.694358
 21
94.606456
 31
0.0
  0
LINE
  5
CD
100
AcDbEntity
  8
LAYER_1
 62
     7
100
AcDbLine
 10
175.645782
 20
97.749761
 30
0.0
 11
178.788742
 21
94.606456
 31
0.0
  0
LINE
  5
CC
100
AcDbEntity
  8
LAYER_1
 62
     7
100
AcDbLine
 10
176.222835
 20
97.749761
 30
0.0
 11
173.078841
 21
94.606456
 31
0.0
  0
LINE
  5
CB
100
AcDbEntity
  8
LAYER_1
 62
     7
100
AcDbLine
 10
173.030265
 20
97.749761
 30
0.0
 11
176.172881
 21
94.606456
 31
0.0
  0
LINE
  5
CA
100
AcDbEntity
  8
LAYER_1
 62
     7
100
AcDbLine
 10
173.606974
 20
97.749761
 30
0.0
 11
170.46298
 21
94.606456
 31
0.0
  0
LINE
  5
C9
100
AcDbEntity
  8
LAYER_1
 62
     7
100
AcDbLine
 10
170.414749
 20
97.749761
 30
0.0
 11
173.557365
 21
94.606456
 31
0.0
  0
LINE
  5
C8
100
AcDbEntity
  8
LAYER_1
 62
     7
100
AcDbLine
 10
170.991458
 20
97.749761
 30
0.0
 11
167.847464
 21
94.606456
 31
0.0
  0
LINE
  5
C7
100
AcDbEntity
  8
LAYER_1
 62
     7
100
AcDbLine
 10
167.798888
 20
97.749761
 30
0.0
 11
170.941848
 21
94.606456
 31
0.0
  0
LINE
  5
C6
100
AcDbEntity
  8
LAYER_1
 62
     7
100
AcDbLine
 10
168.375597
 20
97.749761
 30
0.0
 11
165.231603
 21
94.606456
 31
0.0
  0
LINE
  5
C5
100
AcDbEntity
  8
LAYER_1
 62
     7
100
AcDbLine
 10
165.183371
 20
97.749761
 30
0.0
 11
168.325987
 21
94.606456
 31
0.0
  0
LINE
  5
C4
100
AcDbEntity
  8
LAYER_1
 62
     7
100
AcDbLine
 10
165.76008
 20
97.749761
 30
0.0
 11
162.616086
 21
94.606456
 31
0.0
  0
LINE
  5
C3
100
AcDbEntity
  8
LAYER_1
 62
     7
100
AcDbLine
 10
162.56751
 20
97.749761
 30
0.0
 11
165.710471
 21
94.606456
 31
0.0
  0
LINE
  5
C2
100
AcDbEntity
  8
LAYER_1
 62
     7
100
AcDbLine
 10
163.144219
 20
97.749761
 30
0.0
 11
160.000225
 21
94.606456
 31
0.0
  0
LINE
  5
C1
100
AcDbEntity
  8
LAYER_1
 62
     7
100
AcDbLine
 10
159.951994
 20
97.749761
 30
0.0
 11
163.09461
 21
94.606456
 31
0.0
  0
LINE
  5
C0
100
AcDbEntity
  8
LAYER_1
 62
     7
100
AcDbLine
 10
160.528703
 20
97.749761
 30
0.0
 11
157.384709
 21
94.606456
 31
0.0
  0
LINE
  5
BF
100
AcDbEntity
  8
LAYER_1
 62
     7
100
AcDbLine
 10
157.336133
 20
97.749761
 30
0.0
 11
160.479093
 21
94.606456
 31
0.0
  0
LINE
  5
BE
100
AcDbEntity
  8
LAYER_1
 62
     7
100
AcDbLine
 10
157.913186
 20
97.749761
 30
0.0
 11
154.768848
 21
94.606456
 31
0.0
  0
LINE
  5
BD
100
AcDbEntity
  8
LAYER_1
 62
     7
100
AcDbLine
 10
154.720616
 20
97.749761
 30
0.0
 11
157.863232
 21
94.606456
 31
0.0
  0
LINE
  5
BC
100
AcDbEntity
  8
LAYER_1
 62
     7
100
AcDbLine
 10
155.297325
 20
97.749761
 30
0.0
 11
152.153331
 21
94.606456
 31
0.0
  0
LINE
  5
BB
100
AcDbEntity
  8
LAYER_1
 62
     7
100
AcDbLine
 10
152.104755
 20
97.749761
 30
0.0
 11
155.247716
 21
94.606456
 31
0.0
  0
LINE
  5
BA
100
AcDbEntity
  8
LAYER_1
 62
     7
100
AcDbLine
 10
152.681809
 20
97.749761
 30
0.0
 11
149.53747
 21
94.606456
 31
0.0
  0
LINE
  5
B9
100
AcDbEntity
  8
LAYER_1
 62
     7
100
AcDbLine
 10
149.489239
 20
97.749761
 30
0.0
 11
152.631855
 21
94.606456
 31
0.0
  0
LINE
  5
B8
100
AcDbEntity
  8
LAYER_1
 62
     7
100
AcDbLine
 10
150.065948
 20
97.749761
 30
0.0
 11
146.921954
 21
94.606456
 31
0.0
  0
LINE
  5
B7
100
AcDbEntity
  8
LAYER_1
 62
     7
100
AcDbLine
 10
146.873378
 20
97.749761
 30
0.0
 11
150.016338
 21
94.606456
 31
0.0
  0
LINE
  5
B6
100
AcDbEntity
  8
LAYER_1
 62
     7
100
AcDbLine
 10
147.450431
 20
97.749761
 30
0.0
 11
144.306093
 21
94.606456
 31
0.0
  0
LINE
  5
B5
100
AcDbEntity
  8
LAYER_1
 62
     7
100
AcDbLine
 10
144.257861
 20
97.749761
 30
0.0
 11
147.400477
 21
94.606456
 31
0.0
  0
LINE
  5
B4
100
AcDbEntity
  8
LAYER_1
 62
     7
100
AcDbLine
 10
144.051156
 20
108.388905
 30
0.0
 11
141.460444
 21
105.798538
 31
0.0
  0
LINE
  5
B3
100
AcDbEntity
  8
LAYER_1
 62
     7
100
AcDbLine
 10
141.996501
 20
108.356866
 30
0.0
 11
144.554829
 21
105.798538
 31
0.0
  0
LINE
  5
B2
100
AcDbEntity
  8
LAYER_1
 62
     7
100
AcDbLine
 10
144.60306
 20
106.325982
 30
0.0
 11
141.460444
 21
103.182677
 31
0.0
  0
LINE
  5
B1
100
AcDbEntity
  8
LAYER_1
 62
     7
100
AcDbLine
 10
141.41049
 20
106.325982
 30
0.0
 11
144.554829
 21
103.182677
 31
0.0
  0
LINE
  5
B0
100
AcDbEntity
  8
LAYER_1
 62
     7
100
AcDbLine
 10
144.60306
 20
103.710121
 30
0.0
 11
141.460444
 21
100.56716
 31
0.0
  0
LINE
  5
AF
100
AcDbEntity
  8
LAYER_1
 62
     7
100
AcDbLine
 10
141.41049
 20
103.710121
 30
0.0
 11
144.554829
 21
100.56716
 31
0.0
  0
LINE
  5
AE
100
AcDbEntity
  8
LAYER_1
 62
     7
100
AcDbLine
 10
144.60306
 20
101.094604
 30
0.0
 11
141.840782
 21
98.331638
 31
0.0
  0
LINE
  5
AD
100
AcDbEntity
  8
LAYER_1
 62
     7
100
AcDbLine
 10
141.41049
 20
101.094604
 30
0.0
 11
144.261651
 21
98.243788
 31
0.0
  0
LINE
  5
AC
100
AcDbEntity
  8
LAYER_1
 62
     7
100
AcDbLine
 10
144.83457
 20
97.749761
 30
0.0
 11
141.690576
 21
94.606456
 31
0.0
  0
LINE
  5
AB
100
AcDbEntity
  8
LAYER_1
 62
     7
100
AcDbLine
 10
141.642345
 20
97.749761
 30
0.0
 11
144.784961
 21
94.606456
 31
0.0
  0
LINE
  5
AA
100
AcDbEntity
  8
LAYER_1
 62
     7
100
AcDbLine
 10
142.219054
 20
97.749761
 30
0.0
 11
139.074715
 21
94.606456
 31
0.0
  0
LINE
  5
A9
100
AcDbEntity
  8
LAYER_1
 62
     7
100
AcDbLine
 10
139.026484
 20
97.749761
 30
0.0
 11
142.1691
 21
94.606456
 31
0.0
  0
LINE
  5
A8
100
AcDbEntity
  8
LAYER_1
 62
     7
100
AcDbLine
 10
139.603193
 20
97.749761
 30
0.0
 11
136.459199
 21
94.606456
 31
0.0
  0
LINE
  5
A7
100
AcDbEntity
  8
LAYER_1
 62
     7
100
AcDbLine
 10
136.410967
 20
97.749761
 30
0.0
 11
139.553583
 21
94.606456
 31
0.0
  0
LINE
  5
A6
100
AcDbEntity
  8
LAYER_1
 62
     7
100
AcDbLine
 10
136.987676
 20
97.749761
 30
0.0
 11
133.843338
 21
94.606456
 31
0.0
  0
LINE
  5
A5
100
AcDbEntity
  8
LAYER_1
 62
     7
100
AcDbLine
 10
133.795106
 20
97.749761
 30
0.0
 11
136.937722
 21
94.606456
 31
0.0
  0
LINE
  5
A4
100
AcDbEntity
  8
LAYER_1
 62
     7
100
AcDbLine
 10
134.371815
 20
97.749761
 30
0.0
 11
131.227821
 21
94.606456
 31
0.0
  0
LINE
  5
A3
100
AcDbEntity
  8
LAYER_1
 62
     7
100
AcDbLine
 10
131.17959
 20
97.749761
 30
0.0
 11
134.322206
 21
94.606456
 31
0.0
  0
LINE
  5
A2
100
AcDbEntity
  8
LAYER_1
 62
     7
100
AcDbLine
 10
131.756299
 20
97.749761
 30
0.0
 11
128.61196
 21
94.606456
 31
0.0
  0
LINE
  5
A1
100
AcDbEntity
  8
LAYER_1
 62
     7
100
AcDbLine
 10
128.563729
 20
97.749761
 30
0.0
 11
131.706345
 21
94.606456
 31
0.0
  0
LINE
  5
A0
100
AcDbEntity
  8
LAYER_1
 62
     7
100
AcDbLine
 10
129.13906
 20
97.749761
 30
0.0
 11
125.996444
 21
94.606456
 31
0.0
  0
LINE
  5
9F
100
AcDbEntity
  8
LAYER_1
 62
     7
100
AcDbLine
 10
125.948212
 20
97.749761
 30
0.0
 11
129.090828
 21
94.606456
 31
0.0
  0
LINE
  5
9E
100
AcDbEntity
  8
LAYER_1
 62
     7
100
AcDbLine
 10
126.524921
 20
97.749761
 30
0.0
 11
123.380583
 21
94.606456
 31
0.0
  0
LINE
  5
9D
100
AcDbEntity
  8
LAYER_1
 62
     7
100
AcDbLine
 10
123.332351
 20
97.749761
 30
0.0
 11
126.474967
 21
94.606456
 31
0.0
  0
LINE
  5
9C
100
AcDbEntity
  8
LAYER_1
 62
     7
100
AcDbLine
 10
123.90906
 20
97.749761
 30
0.0
 11
120.765066
 21
94.606456
 31
0.0
  0
LINE
  5
9B
100
AcDbEntity
  8
LAYER_1
 62
     7
100
AcDbLine
 10
120.716835
 20
97.749761
 30
0.0
 11
123.859451
 21
94.606456
 31
0.0
  0
LINE
  5
9A
100
AcDbEntity
  8
LAYER_1
 62
     7
100
AcDbLine
 10
121.292166
 20
97.749761
 30
0.0
 11
118.14955
 21
94.606456
 31
0.0
  0
LINE
  5
99
100
AcDbEntity
  8
LAYER_1
 62
     7
100
AcDbLine
 10
118.100974
 20
97.749761
 30
0.0
 11
121.243934
 21
94.606456
 31
0.0
  0
LINE
  5
98
100
AcDbEntity
  8
LAYER_1
 62
     7
100
AcDbLine
 10
118.677683
 20
97.749761
 30
0.0
 11
115.533689
 21
94.606456
 31
0.0
  0
LINE
  5
97
100
AcDbEntity
  8
LAYER_1
 62
     7
100
AcDbLine
 10
115.485457
 20
97.749761
 30
0.0
 11
118.628073
 21
94.606456
 31
0.0
  0
LINE
  5
96
100
AcDbEntity
  8
LAYER_1
 62
     7
100
AcDbLine
 10
116.062166
 20
97.749761
 30
0.0
 11
112.918172
 21
94.606456
 31
0.0
  0
LINE
  5
95
100
AcDbEntity
  8
LAYER_1
 62
     7
100
AcDbLine
 10
112.869596
 20
97.749761
 30
0.0
 11
116.012212
 21
94.606456
 31
0.0
  0
LINE
  5
94
100
AcDbEntity
  8
LAYER_1
 62
     7
100
AcDbLine
 10
113.445272
 20
97.749761
 30
0.0
 11
110.302311
 21
94.606456
 31
0.0
  0
LINE
  5
93
100
AcDbEntity
  8
LAYER_1
 62
     7
100
AcDbLine
 10
110.25408
 20
97.749761
 30
0.0
 11
113.396696
 21
94.606456
 31
0.0
  0
LINE
  5
92
100
AcDbEntity
  8
LAYER_1
 62
     7
100
AcDbLine
 10
110.830789
 20
97.749761
 30
0.0
 11
107.686795
 21
94.606456
 31
0.0
  0
LINE
  5
91
100
AcDbEntity
  8
LAYER_1
 62
     7
100
AcDbLine
 10
107.638219
 20
97.749761
 30
0.0
 11
110.781179
 21
94.606456
 31
0.0
  0
LINE
  5
90
100
AcDbEntity
  8
LAYER_1
 62
     7
100
AcDbLine
 10
108.213894
 20
97.749761
 30
0.0
 11
105.070934
 21
94.606456
 31
0.0
  0
LINE
  5
8F
100
AcDbEntity
  8
LAYER_1
 62
     7
100
AcDbLine
 10
105.022702
 20
97.749761
 30
0.0
 11
108.165318
 21
94.606456
 31
0.0
  0
LINE
  5
8E
100
AcDbEntity
  8
LAYER_1
 62
     7
100
AcDbLine
 10
105.598033
 20
97.749761
 30
0.0
 11
102.455417
 21
94.606456
 31
0.0
  0
LINE
  5
8D
100
AcDbEntity
  8
LAYER_1
 62
     7
100
AcDbLine
 10
102.407014
 20
97.749761
 30
0.0
 11
105.549802
 21
94.606456
 31
0.0
  0
LINE
  5
8C
100
AcDbEntity
  8
LAYER_1
 62
     7
100
AcDbLine
 10
102.982345
 20
97.749761
 30
0.0
 11
99.839556
 21
94.606456
 31
0.0
  0
LINE
  5
8B
100
AcDbEntity
  8
LAYER_1
 62
     7
100
AcDbLine
 10
99.791325
 20
97.749761
 30
0.0
 11
102.933941
 21
94.606456
 31
0.0
  0
LINE
  5
8A
100
AcDbEntity
  8
LAYER_1
 62
     7
100
AcDbLine
 10
100.366656
 20
97.749761
 30
0.0
 11
97.22404
 21
94.606456
 31
0.0
  0
LINE
  5
89
100
AcDbEntity
  8
LAYER_1
 62
     7
100
AcDbLine
 10
97.175636
 20
97.749761
 30
0.0
 11
100.318424
 21
94.606456
 31
0.0
  0
LINE
  5
88
100
AcDbEntity
  8
LAYER_1
 62
     7
100
AcDbLine
 10
97.750967
 20
97.749761
 30
0.0
 11
94.608351
 21
94.606456
 31
0.0
  0
LINE
  5
87
100
AcDbEntity
  8
LAYER_1
 62
     7
100
AcDbLine
 10
94.559947
 20
97.749761
 30
0.0
 11
97.702563
 21
94.606456
 31
0.0
  0
LINE
  5
86
100
AcDbEntity
  8
LAYER_1
 62
     7
100
AcDbLine
 10
95.135451
 20
97.749761
 30
0.0
 11
91.992662
 21
94.606456
 31
0.0
  0
LINE
  5
85
100
AcDbEntity
  8
LAYER_1
 62
     7
100
AcDbLine
 10
91.944259
 20
97.749761
 30
0.0
 11
95.087047
 21
94.606456
 31
0.0
  0
LINE
  5
84
100
AcDbEntity
  8
LAYER_1
 62
     7
100
AcDbLine
 10
92.51959
 20
97.749761
 30
0.0
 11
89.376973
 21
94.606456
 31
0.0
  0
LINE
  5
83
100
AcDbEntity
  8
LAYER_1
 62
     7
100
AcDbLine
 10
89.32857
 20
97.749761
 30
0.0
 11
92.471186
 21
94.606456
 31
0.0
  0
LINE
  5
82
100
AcDbEntity
  8
LAYER_1
 62
     7
100
AcDbLine
 10
75.609338
 20
96.026869
 30
0.0
 11
74.268852
 21
94.686038
 31
0.0
  0
LINE
  5
81
100
AcDbEntity
  8
LAYER_1
 62
     7
100
AcDbLine
 10
74.472801
 20
96.76033
 30
0.0
 11
72.398682
 21
94.686038
 31
0.0
  0
LINE
  5
80
100
AcDbEntity
  8
LAYER_1
 62
     7
100
AcDbLine
 10
72.632087
 20
96.857137
 30
0.0
 11
71.076971
 21
95.302021
 31
0.0
  0
LINE
  5
7F
100
AcDbEntity
  8
LAYER_1
 62
     7
100
AcDbLine
 10
71.707423
 20
97.781801
 30
0.0
 11
70.152307
 21
96.22634
 31
0.0
  0
LINE
  5
7E
100
AcDbEntity
  8
LAYER_1
 62
     7
100
AcDbLine
 10
70.78276
 20
98.706464
 30
0.0
 11
69.227816
 21
97.151348
 31
0.0
  0
LINE
  5
7D
100
AcDbEntity
  8
LAYER_1
 62
     7
100
AcDbLine
 10
69.858096
 20
99.630783
 30
0.0
 11
68.303152
 21
98.075667
 31
0.0
  0
LINE
  5
7C
100
AcDbEntity
  8
LAYER_1
 62
     7
100
AcDbLine
 10
69.440206
 20
100.99573
 30
0.0
 11
67.446701
 21
98.954167
 31
0.0
  0
LINE
  5
7B
100
AcDbEntity
  8
LAYER_1
 62
     7
100
AcDbLine
 10
75.262762
 20
96.742415
 30
0.0
 11
75.579194
 21
96.425122
 31
0.0
  0
LINE
  5
7A
100
AcDbEntity
  8
LAYER_1
 62
     7
100
AcDbLine
 10
69.186475
 20
100.948532
 30
0.0
 11
69.386979
 21
100.718056
 31
0.0
  0
LINE
  5
79
100
AcDbEntity
  8
LAYER_1
 62
     7
100
AcDbLine
 10
67.316305
 20
100.948532
 30
0.0
 11
73.608255
 21
94.655721
 31
0.0
  0
LINE
  5
78
100
AcDbEntity
  8
LAYER_1
 62
     7
100
AcDbLine
 10
69.440206
 20
102.865728
 30
0.0
 11
67.345071
 21
100.770076
 31
0.0
  0
LINE
  5
77
100
AcDbEntity
  8
LAYER_1
 62
     7
100
AcDbLine
 10
67.316305
 20
102.81853
 30
0.0
 11
69.353906
 21
100.780756
 31
0.0
  0
LINE
  5
76
100
AcDbEntity
  8
LAYER_1
 62
     7
100
AcDbLine
 10
73.357624
 20
96.733114
 30
0.0
 11
75.395226
 21
94.69534
 31
0.0
  0
LINE
  5
75
100
AcDbEntity
  8
LAYER_1
 62
     7
100
AcDbLine
 10
69.440206
 20
104.73607
 30
0.0
 11
67.345071
 21
102.640419
 31
0.0
  0
LINE
  5
74
100
AcDbEntity
  8
LAYER_1
 62
     7
100
AcDbLine
 10
67.316305
 20
104.688873
 30
0.0
 11
69.353906
 21
102.650754
 31
0.0
  0
LINE
  5
73
100
AcDbEntity
  8
LAYER_1
 62
     7
100
AcDbLine
 10
69.440206
 20
106.606413
 30
0.0
 11
67.345071
 21
104.510761
 31
0.0
  0
LINE
  5
72
100
AcDbEntity
  8
LAYER_1
 62
     7
100
AcDbLine
 10
67.316305
 20
106.55887
 30
0.0
 11
69.353906
 21
104.521441
 31
0.0
  0
LINE
  5
71
100
AcDbEntity
  8
LAYER_1
 62
     7
100
AcDbLine
 10
69.440206
 20
108.476411
 30
0.0
 11
67.345071
 21
106.381104
 31
0.0
  0
LINE
  5
70
100
AcDbEntity
  8
LAYER_1
 62
     7
100
AcDbLine
 10
67.316305
 20
108.429213
 30
0.0
 11
69.353906
 21
106.391439
 31
0.0
  0
LINE
  5
6F
100
AcDbEntity
  8
LAYER_1
 62
     7
100
AcDbLine
 10
76.825629
 20
97.749761
 30
0.0
 11
75.716481
 21
96.640441
 31
0.0
  0
LINE
  5
6E
100
AcDbEntity
  8
LAYER_1
 62
     7
100
AcDbLine
 10
75.74542
 20
95.638607
 30
0.0
 11
76.777226
 21
94.606456
 31
0.0
  0
LINE
  5
6D
100
AcDbEntity
  8
LAYER_1
 62
     7
100
AcDbLine
 10
79.441318
 20
97.749761
 30
0.0
 11
76.22136
 21
94.529631
 31
0.0
  0
LINE
  5
6C
100
AcDbEntity
  8
LAYER_1
 62
     7
100
AcDbLine
 10
76.250126
 20
97.749761
 30
0.0
 11
79.392914
 21
94.606456
 31
0.0
  0
LINE
  5
6B
100
AcDbEntity
  8
LAYER_1
 62
     7
100
AcDbLine
 10
82.057007
 20
97.749761
 30
0.0
 11
78.837048
 21
94.529631
 31
0.0
  0
LINE
  5
6A
100
AcDbEntity
  8
LAYER_1
 62
     7
100
AcDbLine
 10
78.865815
 20
97.749761
 30
0.0
 11
82.008603
 21
94.606456
 31
0.0
  0
LINE
  5
69
100
AcDbEntity
  8
LAYER_1
 62
     7
100
AcDbLine
 10
84.672696
 20
97.749761
 30
0.0
 11
81.529907
 21
94.606456
 31
0.0
  0
LINE
  5
68
100
AcDbEntity
  8
LAYER_1
 62
     7
100
AcDbLine
 10
81.481504
 20
97.749761
 30
0.0
 11
84.624292
 21
94.606456
 31
0.0
  0
LINE
  5
67
100
AcDbEntity
  8
LAYER_1
 62
     7
100
AcDbLine
 10
87.288384
 20
97.749761
 30
0.0
 11
84.145596
 21
94.606456
 31
0.0
  0
LINE
  5
66
100
AcDbEntity
  8
LAYER_1
 62
     7
100
AcDbLine
 10
84.097192
 20
97.749761
 30
0.0
 11
87.239808
 21
94.606456
 31
0.0
  0
LINE
  5
65
100
AcDbEntity
  8
LAYER_1
 62
     7
100
AcDbLine
 10
89.904073
 20
97.749761
 30
0.0
 11
86.761285
 21
94.606456
 31
0.0
  0
LINE
  5
64
100
AcDbEntity
  8
LAYER_1
 62
     7
100
AcDbLine
 10
86.712881
 20
97.749761
 30
0.0
 11
89.855669
 21
94.606456
 31
0.0
  0
LINE
  5
63
100
AcDbEntity
  8
LAYER_1
 62
     7
100
AcDbLine
 10
75.711313
 20
108.318281
 30
0.0
 11
85.827492
 21
98.159383
 31
0.0
  0
LINE
  5
62
100
AcDbEntity
  8
LAYER_1
 62
     7
100
AcDbLine
 10
65.213246
 20
159.650203
 30
0.0
 11
46.747879
 21
178.115571
 31
0.0
  0
LINE
  5
61
100
AcDbEntity
  8
LAYER_1
 62
     7
100
AcDbLine
 10
65.17535
 20
160.996202
 30
0.0
 11
47.978639
 21
178.192913
 31
0.0
  0
LINE
  5
60
100
AcDbEntity
  8
LAYER_1
 62
     7
100
AcDbLine
 10
65.16622
 20
162.313435
 30
0.0
 11
49.286397
 21
178.193085
 31
0.0
  0
LINE
  5
5F
100
AcDbEntity
  8
LAYER_1
 62
     7
100
AcDbLine
 10
65.213246
 20
133.493316
 30
0.0
 11
39.114064
 21
159.593015
 31
0.0
  0
LINE
  5
5E
100
AcDbEntity
  8
LAYER_1
 62
     7
100
AcDbLine
 10
65.17535
 20
134.839315
 30
0.0
 11
39.052569
 21
160.961924
 31
0.0
  0
LINE
  5
5D
100
AcDbEntity
  8
LAYER_1
 62
     7
100
AcDbLine
 10
65.16622
 20
136.156375
 30
0.0
 11
39.091843
 21
162.231097
 31
0.0
  0
LINE
  5
5C
100
AcDbEntity
  8
LAYER_1
 62
     7
100
AcDbLine
 10
65.213246
 20
107.336428
 30
0.0
 11
39.114064
 21
133.436127
 31
0.0
  0
LINE
  5
5B
100
AcDbEntity
  8
LAYER_1
 62
     7
100
AcDbLine
 10
65.17535
 20
108.682427
 30
0.0
 11
39.114064
 21
134.74423
 31
0.0
  0
LINE
  5
5A
100
AcDbEntity
  8
LAYER_1
 62
     7
100
AcDbLine
 10
65.16622
 20
109.999487
 30
0.0
 11
39.114064
 21
136.051988
 31
0.0
  0
LINE
  5
59
100
AcDbEntity
  8
LAYER_1
 62
     7
100
AcDbLine
 10
51.773928
 20
68.462316
 30
0.0
 11
39.114064
 21
81.122008
 31
0.0
  0
LINE
  5
58
100
AcDbEntity
  8
LAYER_1
 62
     7
100
AcDbLine
 10
53.119755
 20
68.424419
 30
0.0
 11
39.114064
 21
82.430111
 31
0.0
  0
LINE
  5
57
100
AcDbEntity
  8
LAYER_1
 62
     7
100
AcDbLine
 10
54.407876
 20
68.444057
 30
0.0
 11
39.114064
 21
83.737869
 31
0.0
  0
LINE
  5
56
100
AcDbEntity
  8
LAYER_1
 62
     7
100
AcDbLine
 10
195.336914
 20
81.841344
 30
0.0
 11
184.721197
 21
92.457061
 31
0.0
  0
LINE
  5
55
100
AcDbEntity
  8
LAYER_1
 62
     7
100
AcDbLine
 10
195.29764
 20
83.187687
 30
0.0
 11
186.037912
 21
92.447415
 31
0.0
  0
LINE
  5
54
100
AcDbEntity
  8
LAYER_1
 62
     7
100
AcDbLine
 10
195.202211
 20
84.591564
 30
0.0
 11
187.326378
 21
92.467052
 31
0.0
  0
LINE
  5
53
100
AcDbEntity
  8
LAYER_1
 62
     7
100
AcDbLine
 10
182.654829
 20
68.366542
 30
0.0
 11
158.564309
 21
92.457061
 31
0.0
  0
LINE
  5
52
100
AcDbEntity
  8
LAYER_1
 62
     7
100
AcDbLine
 10
184.000483
 20
68.328301
 30
0.0
 11
159.881369
 21
92.447415
 31
0.0
  0
LINE
  5
51
100
AcDbEntity
  8
LAYER_1
 62
     7
100
AcDbLine
 10
185.346137
 20
68.290405
 30
0.0
 11
161.169491
 21
92.467052
 31
0.0
  0
LINE
  5
50
100
AcDbEntity
  8
LAYER_1
 62
     7
100
AcDbLine
 10
156.497941
 20
68.366542
 30
0.0
 11
132.407422
 21
92.457061
 31
0.0
  0
LINE
  5
4F
100
AcDbEntity
  8
LAYER_1
 62
     7
100
AcDbLine
 10
157.843595
 20
68.328301
 30
0.0
 11
133.724482
 21
92.447415
 31
0.0
  0
LINE
  5
4E
100
AcDbEntity
  8
LAYER_1
 62
     7
100
AcDbLine
 10
159.18925
 20
68.290405
 30
0.0
 11
135.012603
 21
92.467052
 31
0.0
  0
LINE
  5
4D
100
AcDbEntity
  8
LAYER_1
 62
     7
100
AcDbLine
 10
130.339676
 20
68.366542
 30
0.0
 11
106.250534
 21
92.457061
 31
0.0
  0
LINE
  5
4C
100
AcDbEntity
  8
LAYER_1
 62
     7
100
AcDbLine
 10
131.686708
 20
68.328301
 30
0.0
 11
107.567594
 21
92.447415
 31
0.0
  0
LINE
  5
4B
100
AcDbEntity
  8
LAYER_1
 62
     7
100
AcDbLine
 10
133.032707
 20
68.290405
 30
0.0
 11
108.85606
 21
92.467052
 31
0.0
  0
LINE
  5
4A
100
AcDbEntity
  8
LAYER_1
 62
     7
100
AcDbLine
 10
104.112336
 20
68.437166
 30
0.0
 11
80.092613
 21
92.457061
 31
0.0
  0
LINE
  5
49
100
AcDbEntity
  8
LAYER_1
 62
     7
100
AcDbLine
 10
105.458162
 20
68.398926
 30
0.0
 11
81.409501
 21
92.447415
 31
0.0
  0
LINE
  5
48
100
AcDbEntity
  8
LAYER_1
 62
     7
100
AcDbLine
 10
106.765921
 20
68.39927
 30
0.0
 11
82.699173
 21
92.467052
 31
0.0
  0
LINE
  5
47
100
AcDbEntity
  8
LAYER_1
 62
     7
100
AcDbLine
 10
78.00144
 20
68.391691
 30
0.0
 11
39.114064
 21
107.27924
 31
0.0
  0
LINE
  5
46
100
AcDbEntity
  8
LAYER_1
 62
     7
100
AcDbLine
 10
79.347095
 20
68.353451
 30
0.0
 11
39.114064
 21
108.586998
 31
0.0
  0
LINE
  5
45
100
AcDbEntity
  8
LAYER_1
 62
     7
100
AcDbLine
 10
80.673284
 20
68.335192
 30
0.0
 11
39.114064
 21
109.894756
 31
0.0
  0
POLYLINE
  5
3B
100
AcDbEntity
  8
LAYER_1
 62
     7
100
AcDb2dPolyline
 66
     1
 10
0.0
 20
0.0
 30
0.0
 70
     1
  0
VERTEX
  5
3C
100
AcDbEntity
  8
LAYER_1
 62
     7
100
AcDbVertex
100
AcDb2dVertex
 10
71.744975
 20
94.635395
 30
0.0
  0
VERTEX
  5
3D
100
AcDbEntity
  8
LAYER_1
 62
     7
100
AcDbVertex
100
AcDb2dVertex
 10
75.58195
 20
94.635395
 30
0.0
  0
VERTEX
  5
3E
100
AcDbEntity
  8
LAYER_1
 62
     7
100
AcDbVertex
100
AcDb2dVertex
 10
75.58195
 20
96.77411
 30
0.0
  0
VERTEX
  5
3F
100
AcDbEntity
  8
LAYER_1
 62
     7
100
AcDbVertex
100
AcDb2dVertex
 10
72.672222
 20
96.763086
 30
0.0
  0
VERTEX
  5
40
100
AcDbEntity
  8
LAYER_1
 62
     7
100
AcDbVertex
100
AcDb2dVertex
 10
69.412817
 20
99.946354
 30
0.0
  0
VERTEX
  5
41
100
AcDbEntity
  8
LAYER_1
 62
     7
100
AcDbVertex
100
AcDb2dVertex
 10
69.411439
 20
108.450228
 30
0.0
  0
VERTEX
  5
42
100
AcDbEntity
  8
LAYER_1
 62
     7
100
AcDbVertex
100
AcDb2dVertex
 10
67.273069
 20
108.450228
 30
0.0
  0
VERTEX
  5
43
100
AcDbEntity
  8
LAYER_1
 62
     7
100
AcDbVertex
100
AcDb2dVertex
 10
67.280992
 20
99.019968
 30
0.0
  0
SEQEND
  5
44
100
AcDbEntity
  8
LAYER_1
 62
     7
  0
LINE
  5
3A
100
AcDbEntity
  8
LAYER_1
 62
     7
100
AcDbLine
 10
114.699287
 20
102.081624
 30
0.0
 11
74.870365
 21
102.081624
 31
0.0
  0
LINE
  5
39
100
AcDbEntity
  8
LAYER_1
 62
     7
100
AcDbLine
 10
140.309437
 20
102.081624
 30
0.0
 11
119.313303
 21
102.081624
 31
0.0
  0
LINE
  5
38
100
AcDbEntity
  8
LAYER_1
 62
     7
100
AcDbLine
 10
195.414084
 20
102.029603
 30
0.0
 11
145.846739
 21
102.029603
 31
0.0
  0
LINE
  5
37
100
AcDbEntity
  8
LAYER_1
 62
     7
100
AcDbLine
 10
89.866177
 20
108.356521
 30
0.0
 11
69.593168
 21
108.356521
 31
0.0
  0
LINE
  5
36
100
AcDbEntity
  8
LAYER_1
 62
     7
100
AcDbLine
 10
195.414084
 20
108.356521
 30
0.0
 11
89.866177
 21
108.356521
 31
0.0
  0
LINE
  5
35
100
AcDbEntity
  8
LAYER_1
 62
     7
100
AcDbLine
 10
41.665674
 20
68.375499
 30
0.0
 11
41.665674
 21
178.243556
 31
0.0
  0
MTEXT
  5
34
100
AcDbEntity
  8
LAYER_1
 62
     7
100
AcDbMText
 10
90.108023
 20
160.702633
 30
0.0
 40
2.58877
 41
0.0
 71
     1
 72
     2
  1
\W0.50;\fMS Gothic|b0|i0|c128;ボード
  7
KANJISTD
210
0.0
220
0.0
230
1.0
 11
1.000001
 21
0.0
 31
0.0
 73
     1
 44
1.0
  0
MTEXT
  5
33
100
AcDbEntity
  8
LAYER_1
 62
     7
100
AcDbMText
 10
92.107728
 20
145.746267
 30
0.0
 40
2.58877
 41
0.0
 71
     1
 72
     2
  1
\W0.50;\fMS Gothic|b0|i0|c128;成形緩衝材
  7
KANJISTD
210
0.0
220
0.0
230
1.0
 11
1.000001
 21
0.0
 31
0.0
 73
     1
 44
1.0
  0
MTEXT
  5
30
100
AcDbEntity
  8
レイヤー_1
 62
     7
100
AcDbMText
 10
117.129801
 20
237.361152
 30
0.0
 40
4.018806
 41
0.0
 71
     1
 72
     2
  1
\W0.50;\fMS Gothic|b0|i0|c128;【断熱防水】
  7
KANJISTD
210
0.0
220
0.0
230
1.0
 11
1.000001
 21
0.0
 31
0.0
 73
     1
 44
1.0
  0
POLYLINE
  5
2A
100
AcDbEntity
  8
レイヤー_1
 62
     7
100
AcDb2dPolyline
 66
     1
 10
0.0
 20
0.0
 30
0.0
 70
     1
  0
VERTEX
  5
2B
100
AcDbEntity
  8
レイヤー_1
 62
     7
100
AcDbVertex
100
AcDb2dVertex
 10
114.642787
 20
232.563238
 30
0.0
  0
VERTEX
  5
2C
100
AcDbEntity
  8
レイヤー_1
 62
     7
100
AcDbVertex
100
AcDb2dVertex
 10
114.642787
 20
243.357928
 30
0.0
  0
VERTEX
  5
2D
100
AcDbEntity
  8
レイヤー_1
 62
     7
100
AcDbVertex
100
AcDb2dVertex
 10
9.203745
 20
243.357928
 30
0.0
  0
VERTEX
  5
2E
100
AcDbEntity
  8
レイヤー_1
 62
     7
100
AcDbVertex
100
AcDb2dVertex
 10
9.203745
 20
232.563238
 30
0.0
  0
SEQEND
  5
2F
100
AcDbEntity
  8
レイヤー_1
 62
     7
  0
MTEXT
  5
29
100
AcDbEntity
  8
レイヤー_1
 62
     7
100
AcDbMText
 10
13.361458
 20
241.114897
 30
0.0
 40
5.114831
 41
0.0
 71
     1
 72
     2
  1
\W0.50;\fMS Gothic|b0|i0|c128;■乾式保護工法標準納まり詳細図
  7
KANJISTD
210
0.0
220
0.0
230
1.0
 11
1.000001
 21
0.0
 31
0.0
 73
     1
 44
1.0
  0
ENDSEC
  0
SECTION
  2
OBJECTS
  0
DICTIONARY
  5
19
100
AcDbDictionary
280
     0
281
     1
  3
ACAD_GROUP
350
1A
  3
ACAD_MLINESTYLE
350
1B
  3
ACAD_LAYOUT
350
1E
  3
ACAD_PLOTSETTINGS
350
22
  3
ACAD_PLOTSTYLENAME
350
1F
  3
ACAD_WIPEOUT_VARS
350
23
  0
DICTIONARY
  5
1A
102
{ACAD_REACTORS
330
19
102
}
100
AcDbDictionary
280
     0
281
     1
  0
DICTIONARY
  5
1B
102
{ACAD_REACTORS
330
19
102
}
100
AcDbDictionary
280
     0
281
     1
  3
Standard
350
1C
  0
MLINESTYLE
  5
1C
102
{ACAD_REACTORS
330
1B
102
}
100
AcDbMlineStyle
  2
Standard
 70
     0
  3

 62
     0
 51
90.0
 52
90.0
 71
     2
 49
0.5
 62
   256
  6
BYLAYER
 49
-0.5
 62
   256
  6
BYLAYER
  0
ACDBDICTIONARYWDFLT
  5
1F
102
{ACAD_REACTORS
330
19
102
}
100
AcDbDictionary
281
     1
  3
Normal
350
1D
100
AcDbDictionaryWithDefault
340
1D
  0
ACDBPLACEHOLDER
  5
1D
102
{ACAD_REACTORS
330
1F
102
}
  0
LAYOUT
  5
20
102
{ACAD_REACTORS
330
1E
102
}
100
AcDbPlotSettings
  1

  2

  4

  6

 40
0.0
 41
0.0
 42
0.0
 43
0.0
 44
0.0
 45
0.0
 46
0.0
 47
0.0
 48
0.0
 49
0.0
140
0.0
141
0.0
142
1.0
143
1.0
 70
  1024
 72
     0
 73
     0
 74
     0
  7

 75
     0
147
1.0
148
0.0
149
0.0
100
AcDbLayout
  1
Model
 70
     0
 71
     0
 10
0.0
 20
0.0
 11
0.0
 21
0.0
 12
0.0
 22
0.0
 32
0.0
 14
0.0
 24
0.0
 34
0.0
 15
0.0
 25
0.0
 35
0.0
146
0.0
 13
0.0
 23
0.0
 33
0.0
 16
0.0
 26
0.0
 36
0.0
 17
0.0
 27
0.0
 37
0.0
 76
     0
330
A
331
0
345
0
346
0
  0
LAYOUT
  5
21
102
{ACAD_REACTORS
330
1E
102
}
100
AcDbPlotSettings
  1

  2

  4

  6

 40
0.0
 41
0.0
 42
0.0
 43
0.0
 44
0.0
 45
0.0
 46
0.0
 47
0.0
 48
0.0
 49
0.0
140
0.0
141
0.0
142
1.0
143
1.0
 70
     0
 72
     0
 73
     0
 74
     0
  7

 75
     0
147
1.0
148
0.0
149
0.0
100
AcDbLayout
  1
Layout1
 70
     0
 71
     0
 10
0.0
 20
0.0
 11
0.0
 21
0.0
 12
0.0
 22
0.0
 32
0.0
 14
0.0
 24
0.0
 34
0.0
 15
0.0
 25
0.0
 35
0.0
146
0.0
 13
0.0
 23
0.0
 33
0.0
 16
0.0
 26
0.0
 36
0.0
 17
0.0
 27
0.0
 37
0.0
 76
     0
330
B
331
0
345
0
346
0
  0
DICTIONARY
  5
1E
102
{ACAD_REACTORS
330
19
102
}
100
AcDbDictionary
280
     0
281
     1
  3
Layout1
350
21
  3
Model
350
20
  0
DICTIONARY
  5
22
102
{ACAD_REACTORS
330
19
102
}
100
AcDbDictionary
280
     0
281
     1
  0
WIPEOUTVARIABLES
  5
23
100
AcDbWipeoutVariables
 70
     1
  0
ENDSEC
  0
EOF
