  0
SECTION
  2
HEADER
  9
$ACADVER
  1
AC1015
  9
$ACADMAINTVER
 70
     6
  9
$DWGCODEPAGE
  3
ANSI_932
  9
$INSBASE
 10
0.0
 20
0.0
 30
0.0
  9
$EXTMIN
 10
4.761639
 20
64.656519
 30
1.000000E+20
  9
$EXTMAX
 10
203.905556
 20
247.394202
 30
-1.000000E+20
  9
$LIMMIN
 10
4.761639
 20
64.656519
  9
$LIMMAX
 10
203.905556
 20
247.394202
  9
$ORTHOMODE
 70
     0
  9
$REGENMODE
 70
     1
  9
$FILLMODE
 70
     1
  9
$QTEXTMODE
 70
     0
  9
$MIRRTEXT
 70
     1
  9
$LTSCALE
 40
1.0
  9
$ATTMODE
 70
     1
  9
$TEXTSIZE
 40
0.2
  9
$TRACEWID
 40
0.05
  9
$TEXTSTYLE
  7
Standard
  9
$CLAYER
  8
0
  9
$CELTYPE
  6
Continuous
  9
$CECOLOR
 62
   256
  9
$CELTSCALE
 40
1.0
  9
$DISPSILH
 70
     0
  9
$DIMSCALE
 40
1.0
  9
$DIMASZ
 40
0.18
  9
$DIMEXO
 40
0.0625
  9
$DIMDLI
 40
0.38
  9
$DIMRND
 40
0.0
  9
$DIMDLE
 40
0.0
  9
$DIMEXE
 40
0.18
  9
$DIMTP
 40
0.0
  9
$DIMTM
 40
0.0
  9
$DIMTXT
 40
0.18
  9
$DIMCEN
 40
0.09
  9
$DIMTSZ
 40
0.0
  9
$DIMTOL
 70
     0
  9
$DIMLIM
 70
     0
  9
$DIMTIH
 70
     1
  9
$DIMTOH
 70
     1
  9
$DIMSE1
 70
     0
  9
$DIMSE2
 70
     0
  9
$DIMTAD
 70
     0
  9
$DIMZIN
 70
     0
  9
$DIMBLK
  1

  9
$DIMASO
 70
     1
  9
$DIMSHO
 70
     1
  9
$DIMPOST
  1

  9
$DIMAPOST
  1

  9
$DIMALT
 70
     0
  9
$DIMALTD
 70
     2
  9
$DIMALTF
 40
25.4
  9
$DIMLFAC
 40
1.0
  9
$DIMTOFL
 70
     0
  9
$DIMTVP
 40
0.0
  9
$DIMTIX
 70
     0
  9
$DIMSOXD
 70
     0
  9
$DIMSAH
 70
     0
  9
$DIMBLK1
  1

  9
$DIMBLK2
  1

  9
$DIMSTYLE
  2
Standard
  9
$DIMCLRD
 70
     0
  9
$DIMCLRE
 70
     0
  9
$DIMCLRT
 70
     0
  9
$DIMTFAC
 40
1.0
  9
$DIMGAP
 40
0.09
  9
$DIMJUST
 70
     0
  9
$DIMSD1
 70
     0
  9
$DIMSD2
 70
     0
  9
$DIMTOLJ
 70
     1
  9
$DIMTZIN
 70
     0
  9
$DIMALTZ
 70
     0
  9
$DIMALTTZ
 70
     0
  9
$DIMUPT
 70
     0
  9
$DIMDEC
 70
     4
  9
$DIMTDEC
 70
     4
  9
$DIMALTU
 70
     2
  9
$DIMALTTD
 70
     2
  9
$DIMTXSTY
  7
Standard
  9
$DIMAUNIT
 70
     0
  9
$DIMADEC
 70
     0
  9
$DIMALTRND
 40
0.0
  9
$DIMAZIN
 70
     0
  9
$DIMDSEP
 70
     0
  9
$DIMATFIT
 70
     3
  9
$DIMFRAC
 70
     0
  9
$DIMLDRBLK
  1

  9
$DIMLUNIT
 70
     2
  9
$DIMLWD
 70
     0
  9
$DIMLWE
 70
     0
  9
$DIMTMOVE
 70
     0
  9
$LUNITS
 70
     2
  9
$LUPREC
 70
     4
  9
$SKETCHINC
 40
0.1
  9
$FILLETRAD
 40
0.0
  9
$AUNITS
 70
     0
  9
$AUPREC
 70
     0
  9
$MENU
  1
acad
  9
$ELEVATION
 40
0.0
  9
$PELEVATION
 40
0.0
  9
$THICKNESS
 40
0.0
  9
$LIMCHECK
 70
     0
  9
$CHAMFERA
 40
0.0
  9
$CHAMFERB
 40
0.0
  9
$CHAMFERC
 40
0.0
  9
$CHAMFERD
 40
0.0
  9
$SKPOLY
 70
     0
  9
$TDCREATE
 40
0.000000000
  9
$TDUCREATE
 40
0.000000000
  9
$TDUPDATE
 40
0.000000000
  9
$TDUUPDATE
 40
0.000000000
  9
$TDINDWG
 40
0.0000000000
  9
$TDUSRTIMER
 40
0.0000000000
  9
$USRTIMER
 70
     1
  9
$ANGBASE
 50
0.0
  9
$ANGDIR
 70
     0
  9
$PDMODE
 70
     0
  9
$PDSIZE
 40
0.0
  9
$PLINEWID
 40
0.0
  9
$SPLFRAME
 70
     0
  9
$SPLINETYPE
 70
     6
  9
$SPLINESEGS
 70
     8
  9
$HANDSEED
  5
282
  9
$SURFTAB1
 70
     6
  9
$SURFTAB2
 70
     6
  9
$SURFTYPE
 70
     6
  9
$SURFU
 70
     6
  9
$SURFV
 70
     6
  9
$UCSBASE
  2

  9
$UCSNAME
  2

  9
$UCSORG
 10
0.0
 20
0.0
 30
0.0
  9
$UCSXDIR
 10
1.0
 20
0.0
 30
0.0
  9
$UCSYDIR
 10
0.0
 20
1.0
 30
0.0
  9
$UCSORTHOREF
  2

  9
$UCSORTHOVIEW
 70
     0
  9
$UCSORGTOP
 10
0.0
 20
0.0
 30
0.0
  9
$UCSORGBOTTOM
 10
0.0
 20
0.0
 30
0.0
  9
$UCSORGLEFT
 10
0.0
 20
0.0
 30
0.0
  9
$UCSORGRIGHT
 10
0.0
 20
0.0
 30
0.0
  9
$UCSORGFRONT
 10
0.0
 20
0.0
 30
0.0
  9
$UCSORGBACK
 10
0.0
 20
0.0
 30
0.0
  9
$PUCSBASE
  2

  9
$PUCSNAME
  2

  9
$PUCSORG
 10
0.0
 20
0.0
 30
0.0
  9
$PUCSXDIR
 10
1.0
 20
0.0
 30
0.0
  9
$PUCSYDIR
 10
0.0
 20
1.0
 30
0.0
  9
$PUCSORTHOREF
  2

  9
$PUCSORTHOVIEW
 70
     0
  9
$PUCSORGTOP
 10
0.0
 20
0.0
 30
0.0
  9
$PUCSORGBOTTOM
 10
0.0
 20
0.0
 30
0.0
  9
$PUCSORGLEFT
 10
0.0
 20
0.0
 30
0.0
  9
$PUCSORGRIGHT
 10
0.0
 20
0.0
 30
0.0
  9
$PUCSORGFRONT
 10
0.0
 20
0.0
 30
0.0
  9
$PUCSORGBACK
 10
0.0
 20
0.0
 30
0.0
  9
$USERI1
 70
     0
  9
$USERI2
 70
     0
  9
$USERI3
 70
     0
  9
$USERI4
 70
     0
  9
$USERI5
 70
     0
  9
$USERR1
 40
0.0
  9
$USERR2
 40
0.0
  9
$USERR3
 40
0.0
  9
$USERR4
 40
0.0
  9
$USERR5
 40
0.0
  9
$WORLDVIEW
 70
     1
  9
$SHADEDGE
 70
     3
  9
$SHADEDIF
 70
    70
  9
$TILEMODE
 70
     1
  9
$MAXACTVP
 70
    16
  9
$PINSBASE
 10
0.0
 20
0.0
 30
0.0
  9
$PLIMCHECK
 70
     0
  9
$PEXTMIN
 10
1.000000E+20
 20
1.000000E+20
 30
1.000000E+20
  9
$PEXTMAX
 10
-1.000000E+20
 20
-1.000000E+20
 30
-1.000000E+20
  9
$PLIMMIN
 10
0.0
 20
0.0
  9
$PLIMMAX
 10
12.0
 20
9.0
  9
$UNITMODE
 70
     0
  9
$VISRETAIN
 70
     0
  9
$PLINEGEN
 70
     1
  9
$PSLTSCALE
 70
     0
  9
$TREEDEPTH
 70
  3020
  9
$CMLSTYLE
  2
Standard
  9
$CMLJUST
 70
     0
  9
$CMLSCALE
 40
1.0
  9
$PROXYGRAPHICS
 70
     0
  9
$MEASUREMENT
 70
     0
  9
$CELWEIGHT
370
     0
  9
$ENDCAPS
280
     0
  9
$JOINSTYLE
280
     0
  9
$LWDISPLAY
290
     0
  9
$INSUNITS
 70
     0
  9
$HYPERLINKBASE
  1

  9
$XEDIT
290
     1
  9
$CEPSNTYPE
380
     0
  9
$PSTYLEMODE
290
     1
  9
$FINGERPRINTGUID
  2

  9
$VERSIONGUID
  2

  9
$EXTNAMES
290
     1
  9
$PSVPSCALE
 40
0.0
  0
ENDSEC
  0
SECTION
  2
CLASSES
  0
CLASS
  1
LWPOLYLINE
  2
AcDbPolyline
  3
"AutoCAD"
 90
        0
280
     0
281
     1
  0
CLASS
  1
IMAGE
  2
AcDbRasterImage
  3
ISM
 90
      127
280
     0
281
     1
  0
CLASS
  1
OLE2FRAME
  2
AcDbOle2Frame
  3
""
 90
        0
280
     0
281
     1
  0
CLASS
  1
HATCH
  2
AcDbHatch
  3
"ACAD_SEDONA"
 90
        0
280
     0
281
     1
  0
CLASS
  1
DICTIONARYVAR
  2
AcDbDictionaryVar
  3
"AutoCAD"
 90
        0
280
     0
281
     0
  0
CLASS
  1
RASTERVARIABLES
  2
AcDbRasterVariables
  3
ISM
 90
        0
280
     0
281
     0
  0
CLASS
  1
IMAGEDEF
  2
AcDbRasterImageDef
  3
ISM
 90
        0
280
     0
281
     0
  0
CLASS
  1
IMAGEDEF_REACTOR
  2
AcDbRasterImageDefReactor
  3
ISM
 90
        1
280
     0
281
     0
  0
CLASS
  1
IDBUFFER
  2
AcDbIdBuffer
  3
"Acad"
 90
        0
280
     0
281
     0
  0
CLASS
  1
SPATIAL_FILTER
  2
AcDbSpatialFilter
  3
"Acad"
 90
        0
280
     0
281
     0
  0
CLASS
  1
XRECORD
  2
AcDbXrecord
  3
"<Built In>"
 90
        0
280
     0
281
     0
  0
CLASS
  1
SORTENTSTABLE
  2
AcDbSortentsTable
  3
"AutoCAD"
 90
        0
280
     0
281
     0
  0
CLASS
  1
LAYER_INDEX
  2
AcDbLayerIndex
  3
"Acad"
 90
        0
280
     0
281
     0
  0
CLASS
  1
SPATIAL_INDEX
  2
AcDbSpatialIndex
  3
"Acad"
 90
        0
280
     0
281
     0
  0
CLASS
  1
OBJECT_PTR
  2
CAseDLPNTableRecord
  3
"ASE-LPNTableRecord"
 90
        1
280
     0
281
     0
  0
CLASS
  1
LAYOUT
  2
AcDbLayout
  3
"AutoCAD 2000"
 90
        1
280
     0
281
     0
  0
CLASS
  1
PLOTSETTINGS
  2
AcDbPlotSettings
  3
"AutoCAD 2000"
 90
        1
280
     0
281
     0
  0
CLASS
  1
ACDBDICTIONARYWDFLT
  2
AcDbDictionaryWithDefault
  3
"AutoCAD 2000"
 90
        1
280
     0
281
     0
  0
CLASS
  1
ACDBPLACEHOLDER
  2
AcDbPlaceHolder
  3
"AutoCAD 2000"
 90
        1
280
     0
281
     0
  0
CLASS
  1
VBA_PROJECT
  2
AcDbVbaProject
  3
"acadvba"
 90
        1
280
     0
281
     0
  0
CLASS
  1
WIPEOUT
  2
AcDbWipeout
  3
WipeOut|AutoCAD Express Tool|expresstools@autodesk.com
 90
      127
280
     0
281
     1
  0
CLASS
  1
WIPEOUTVARIABLES
  2
AcDbWipeoutVariables
  3
WipeOut|AutoCAD Express Tool|expresstools@autodesk.com
 90
        0
280
     0
281
     0
  0
CLASS
  1
RTEXT
  2
RText
  3
RText|AutoCAD Express Tool|expresstools@autodesk.com
 90
        0
280
     0
281
     1
  0
CLASS
  1
ARCALIGNEDTEXT
  2
AcDbArcAlignedText
  3
ATEXT|AutoCAD Express Tool|expresstools@autodesk.com
 90
        0
280
     0
281
     1
  0
ENDSEC
  0
SECTION
  2
TABLES
  0
TABLE
  2
VPORT
  5
7
100
AcDbSymbolTable
 70
     1
  0
VPORT
  5
15
100
AcDbSymbolTableRecord
100
AcDbViewportTableRecord
  2
*ACTIVE
 70
     0
 10
0.0
 20
0.0
 11
1.0
 21
1.0
 12
6.591288
 22
4.579184
 13
0.0
 23
0.0
 14
1.0
 24
1.0
 15
0.0
 25
0.0
 16
0.0
 26
0.0
 36
1.0
 17
0.0
 27
0.0
 37
0.0
 40
9.158369
 41
0.688564
 42
50.0
 43
0.0
 44
0.0
 50
0.0
 51
0.0
 71
     0
 72
   100
 73
     1
 74
     1
 75
     0
 76
     0
 77
     0
 78
     0
281
     0
 65
     0
110
0.0
120
0.0
130
0.0
111
1.0
121
0.0
131
0.0
112
0.0
122
1.0
132
0.0
345
0
346
0
 79
     0
146
0.0
  0
ENDTAB
  0
TABLE
  2
LTYPE
  5
4
100
AcDbSymbolTable
 70
     3
  0
LTYPE
  5
11
100
AcDbSymbolTableRecord
100
AcDbLinetypeTableRecord
  2
ByBlock
 70
    64
  3

 72
    65
 73
     0
 40
0.0
  0
LTYPE
  5
12
100
AcDbSymbolTableRecord
100
AcDbLinetypeTableRecord
  2
ByLayer
 70
    64
  3

 72
    65
 73
     0
 40
0.0
  0
LTYPE
  5
13
100
AcDbSymbolTableRecord
100
AcDbLinetypeTableRecord
  2
Continuous
 70
    64
  3
Solid line
 72
    65
 73
     0
 40
0.0
  0
ENDTAB
  0
TABLE
  2
LAYER
  5
2
100
AcDbSymbolTable
 70
     4
  0
LAYER
  5
14
100
AcDbSymbolTableRecord
100
AcDbLayerTableRecord
  2
0
 70
     0
 62
     7
  6
Continuous
290
     1
370
    -3
390
1D
  0
LAYER
  5
28
100
AcDbSymbolTableRecord
100
AcDbLayerTableRecord
  2
レイヤー_1
 70
     0
 62
   160
  6
Continuous
290
     1
370
    -3
390
1F
  0
LAYER
  5
31
100
AcDbSymbolTableRecord
100
AcDbLayerTableRecord
  2
0
 70
     0
 62
     7
  6
Continuous
290
     1
370
    -3
390
1F
  0
LAYER
  5
33
100
AcDbSymbolTableRecord
100
AcDbLayerTableRecord
  2
LAYER_1
 70
     0
 62
     7
  6
Continuous
290
     1
370
    -3
390
1F
  0
ENDTAB
  0
TABLE
  2
STYLE
  5
3
100
AcDbSymbolTable
 70
     5
  0
STYLE
  5
17
100
AcDbSymbolTableRecord
100
AcDbTextStyleTableRecord
  2
Standard
 70
     0
 40
0.0
 41
1.0
 50
0.0
 71
     0
 42
0.0
  3
txt
  4

  0
STYLE
  5
24
100
AcDbSymbolTableRecord
100
AcDbTextStyleTableRecord
  2
STD
 70
     0
 40
0.0
 41
1.0
 50
0.0
 71
     0
 42
0.0
  3
txt
  4

  0
STYLE
  5
25
100
AcDbSymbolTableRecord
100
AcDbTextStyleTableRecord
  2
TATESTD
 70
     4
 40
0.0
 41
1.0
 50
0.0
 71
     0
 42
0.0
  3
txt
  4

  0
STYLE
  5
26
100
AcDbSymbolTableRecord
100
AcDbTextStyleTableRecord
  2
KANJISTD
 70
     0
 40
0.0
 41
1.0
 50
0.0
 71
     0
 42
0.0
  3
txt
  4
extfont
  0
STYLE
  5
27
100
AcDbSymbolTableRecord
100
AcDbTextStyleTableRecord
  2
KANJITATE
 70
     4
 40
0.0
 41
1.0
 50
0.0
 71
     0
 42
0.0
  3
txt
  4
extfont
  0
ENDTAB
  0
TABLE
  2
VIEW
  5
5
100
AcDbSymbolTable
 70
     0
  0
ENDTAB
  0
TABLE
  2
UCS
  5
6
100
AcDbSymbolTable
 70
     0
  0
ENDTAB
  0
TABLE
  2
APPID
  5
8
100
AcDbSymbolTable
 70
     1
  0
APPID
  5
16
100
AcDbSymbolTableRecord
100
AcDbRegAppTableRecord
  2
ACAD
 70
     0
  0
ENDTAB
  0
TABLE
  2
DIMSTYLE
  5
9
100
AcDbSymbolTable
 70
     1
100
AcDbDimStyleTable
 71
     0
  0
DIMSTYLE
105
18
100
AcDbSymbolTableRecord
100
AcDbDimStyleTableRecord
  2
Standard
 70
     0
  3

  4

 40
1.0
 41
0.18
 42
0.0625
 43
0.38
 44
0.18
 45
0.0
 46
0.0
 47
0.0
 48
0.0
 71
     0
 72
     0
 73
     1
 74
     1
 75
     0
 76
     0
 77
     0
 78
     0
 79
     0
140
0.18
141
0.09
142
0.0
143
25.4
144
1.0
145
0.0
146
1.0
147
0.09
148
0.0
170
     0
171
     2
172
     0
173
     0
174
     0
175
     0
176
     0
177
     0
178
     0
179
     0
271
     4
272
     4
273
     2
274
     2
275
     0
276
     0
277
     2
278
    46
279
     0
280
     0
281
     0
282
     0
283
     1
284
     0
285
     0
286
     0
288
     0
340
17
341
0
342
0
343
0
344
0
371
    -2
372
    -2
  0
ENDTAB
  0
TABLE
  2
BLOCK_RECORD
  5
1
100
AcDbSymbolTable
 70
     0
  0
BLOCK_RECORD
  5
A
100
AcDbSymbolTableRecord
100
AcDbBlockTableRecord
  2
*MODEL_SPACE
340
20
  0
BLOCK_RECORD
  5
B
100
AcDbSymbolTableRecord
100
AcDbBlockTableRecord
  2
*PAPER_SPACE
340
21
  0
ENDTAB
  0
ENDSEC
  0
SECTION
  2
BLOCKS
  0
BLOCK
  5
D
100
AcDbEntity
  8
0
100
AcDbBlockBegin
  2
*MODEL_SPACE
 70
     0
 10
0.0
 20
0.0
 30
0.0
  3
*MODEL_SPACE
  1

  0
ENDBLK
  5
E
100
AcDbEntity
  8
0
100
AcDbBlockEnd
  0
BLOCK
  5
F
100
AcDbEntity
 67
     1
  8
0
100
AcDbBlockBegin
  2
*PAPER_SPACE
 70
     0
 10
0.0
 20
0.0
 30
0.0
  3
*PAPER_SPACE
  1

  0
ENDBLK
  5
10
100
AcDbEntity
 67
     1
  8
0
100
AcDbBlockEnd
  0
ENDSEC
  0
SECTION
  2
ENTITIES
  0
LINE
  5
281
100
AcDbEntity
  8
LAYER_1
 62
     7
100
AcDbLine
 10
182.885305
 20
96.053396
 30
0.0
 11
67.713869
 21
96.053396
 31
0.0
  0
POLYLINE
  5
27C
100
AcDbEntity
  8
LAYER_1
 62
     7
100
AcDb2dPolyline
 66
     1
 10
0.0
 20
0.0
 30
0.0
  0
VERTEX
  5
27D
100
AcDbEntity
  8
LAYER_1
 62
     7
100
AcDbVertex
100
AcDb2dVertex
 10
77.379084
 20
183.96052
 30
0.0
  0
VERTEX
  5
27E
100
AcDbEntity
  8
LAYER_1
 62
     7
100
AcDbVertex
100
AcDb2dVertex
 10
79.355707
 20
184.490031
 30
0.0
  0
VERTEX
  5
27F
100
AcDbEntity
  8
LAYER_1
 62
     7
100
AcDbVertex
100
AcDb2dVertex
 10
77.379084
 20
185.019542
 30
0.0
  0
SEQEND
  5
280
100
AcDbEntity
  8
LAYER_1
 62
     7
  0
LINE
  5
27B
100
AcDbEntity
  8
LAYER_1
 62
     7
100
AcDbLine
 10
73.369854
 20
184.490031
 30
0.0
 11
79.464917
 21
184.490031
 31
0.0
  0
MTEXT
  5
27A
100
AcDbEntity
  8
LAYER_1
 62
     7
100
AcDbMText
 10
74.499329
 20
188.45362
 30
0.0
 40
2.700272
 41
0.0
 71
     1
 72
     2
  1
\W0.50;\fMS Gothic|b0|i0|c128;(40以上)
  7
KANJISTD
210
0.0
220
0.0
230
1.0
 11
1.000001
 21
0.0
 31
0.0
 73
     1
 44
1.0
  0
POLYLINE
  5
275
100
AcDbEntity
  8
LAYER_1
 62
     7
100
AcDb2dPolyline
 66
     1
 10
0.0
 20
0.0
 30
0.0
  0
VERTEX
  5
276
100
AcDbEntity
  8
LAYER_1
 62
     7
100
AcDbVertex
100
AcDb2dVertex
 10
75.346478
 20
183.96052
 30
0.0
  0
VERTEX
  5
277
100
AcDbEntity
  8
LAYER_1
 62
     7
100
AcDbVertex
100
AcDb2dVertex
 10
73.369854
 20
184.490031
 30
0.0
  0
VERTEX
  5
278
100
AcDbEntity
  8
LAYER_1
 62
     7
100
AcDbVertex
100
AcDb2dVertex
 10
75.346478
 20
185.019542
 30
0.0
  0
SEQEND
  5
279
100
AcDbEntity
  8
LAYER_1
 62
     7
  0
MTEXT
  5
274
100
AcDbEntity
  8
LAYER_1
 62
     7
100
AcDbMText
 10
9.137771
 20
230.913234
 30
0.0
 40
4.629027
 41
0.0
 71
     1
 72
     2
  1
\W0.50;\fMS Gothic|b0|i0|c128;●あご下タイプ　直取付方式　
  7
KANJISTD
210
0.0
220
0.0
230
1.0
 11
1.000001
 21
0.0
 31
0.0
 73
     1
 44
1.0
  0
POLYLINE
  5
26E
100
AcDbEntity
  8
LAYER_1
 62
     7
100
AcDb2dPolyline
 66
     1
 10
0.0
 20
0.0
 30
0.0
  0
VERTEX
  5
26F
100
AcDbEntity
  8
LAYER_1
 62
     7
100
AcDbVertex
100
AcDb2dVertex
 10
53.167814
 20
178.922757
 30
0.0
  0
VERTEX
  5
270
100
AcDbEntity
  8
LAYER_1
 62
     7
100
AcDbVertex
100
AcDb2dVertex
 10
17.500224
 20
178.922757
 30
0.0
  0
VERTEX
  5
271
100
AcDbEntity
  8
LAYER_1
 62
     7
100
AcDbVertex
100
AcDb2dVertex
 10
17.500224
 20
90.083046
 30
0.0
  0
VERTEX
  5
272
100
AcDbEntity
  8
LAYER_1
 62
     7
100
AcDbVertex
100
AcDb2dVertex
 10
58.646377
 20
90.083046
 30
0.0
  0
SEQEND
  5
273
100
AcDbEntity
  8
LAYER_1
 62
     7
  0
POLYLINE
  5
269
100
AcDbEntity
  8
LAYER_1
 62
     7
100
AcDb2dPolyline
 66
     1
 10
0.0
 20
0.0
 30
0.0
  0
VERTEX
  5
26A
100
AcDbEntity
  8
LAYER_1
 62
     7
100
AcDbVertex
100
AcDb2dVertex
 10
16.969507
 20
92.059497
 30
0.0
  0
VERTEX
  5
26B
100
AcDbEntity
  8
LAYER_1
 62
     7
100
AcDbVertex
100
AcDb2dVertex
 10
17.500224
 20
90.083046
 30
0.0
  0
VERTEX
  5
26C
100
AcDbEntity
  8
LAYER_1
 62
     7
100
AcDbVertex
100
AcDb2dVertex
 10
18.02939
 20
92.059497
 30
0.0
  0
SEQEND
  5
26D
100
AcDbEntity
  8
LAYER_1
 62
     7
  0
POLYLINE
  5
264
100
AcDbEntity
  8
LAYER_1
 62
     7
100
AcDb2dPolyline
 66
     1
 10
0.0
 20
0.0
 30
0.0
  0
VERTEX
  5
265
100
AcDbEntity
  8
LAYER_1
 62
     7
100
AcDbVertex
100
AcDb2dVertex
 10
18.02939
 20
176.80988
 30
0.0
  0
VERTEX
  5
266
100
AcDbEntity
  8
LAYER_1
 62
     7
100
AcDbVertex
100
AcDb2dVertex
 10
17.500224
 20
178.786331
 30
0.0
  0
VERTEX
  5
267
100
AcDbEntity
  8
LAYER_1
 62
     7
100
AcDbVertex
100
AcDb2dVertex
 10
16.969507
 20
176.80988
 30
0.0
  0
SEQEND
  5
268
100
AcDbEntity
  8
LAYER_1
 62
     7
  0
MTEXT
  5
263
100
AcDbEntity
  8
LAYER_1
 62
     7
100
AcDbMText
 10
14.044097
 20
120.48119
 30
0.0
 40
2.700272
 41
0.0
 71
     1
 72
     2
  1
\W0.50;\fMS Gothic|b0|i0|c128;水上400以上
  7
KANJISTD
210
0.0
220
0.0
230
1.0
 11
0.0
 21
1.0
 31
0.0
 73
     1
 44
1.0
  0
SPLINE
  5
262
100
AcDbEntity
  8
LAYER_1
 62
     7
100
AcDbSpline
210
0.0
220
0.0
230
1.0
 70
     8
 71
     3
 72
    17
 73
    13
 74
     0
 42
0.00000001
 43
0.00000001
 40
0.0
 40
0.0
 40
0.0
 40
0.0
 40
1.0
 40
1.0
 40
1.0
 40
2.0
 40
2.0
 40
2.0
 40
3.0
 40
3.0
 40
3.0
 40
4.0
 40
4.0
 40
4.0
 40
4.0
 10
62.742940266927079
 20
169.68886718749999
 30
0.0
 10
62.537957085503464
 20
169.68748914930555
 30
0.0
 10
62.372075737847219
 20
169.52195231119791
 30
0.0
 10
62.370525444878467
 20
169.31714138454859
 30
0.0
 10
62.466126844618053
 20
169.07081705729166
 30
0.0
 10
62.74207899305555
 20
168.94679361979166
 30
0.0
 10
62.989781358506939
 20
169.03894992404511
 30
0.0
 10
63.068157280815967
 20
169.11026340060764
 30
0.0
 10
63.113288031684021
 20
169.21120469835068
 30
0.0
 10
63.113977050781244
 20
169.31714138454859
 30
0.0
 10
63.112599012586799
 20
169.52160780164928
 30
0.0
 10
62.947406684027769
 20
169.68714463975692
 30
0.0
 10
62.742940266927079
 20
169.68886718749999
 30
0.0
  0
MTEXT
  5
261
100
AcDbEntity
  8
LAYER_1
 62
     7
100
AcDbMText
 10
44.505466
 20
163.614309
 30
0.0
 40
2.700272
 41
0.0
 71
     1
 72
     2
  1
\W0.50;\fMS Gothic|b0|i0|c128;押え金物
  7
KANJISTD
210
0.0
220
0.0
230
1.0
 11
1.000001
 21
0.0
 31
0.0
 73
     1
 44
1.0
  0
MTEXT
  5
260
100
AcDbEntity
  8
LAYER_1
 62
     7
100
AcDbMText
 10
13.875983
 20
212.596677
 30
0.0
 40
2.700272
 41
0.0
 71
     1
 72
     2
  1
\W0.50;\fMS Gothic|b0|i0|c128;ゴムアスファルト系シール材
  7
KANJISTD
210
0.0
220
0.0
230
1.0
 11
1.000001
 21
0.0
 31
0.0
 73
     1
 44
1.0
  0
MTEXT
  5
25F
100
AcDbEntity
  8
LAYER_1
 62
     7
100
AcDbMText
 10
49.923217
 20
179.055737
 30
0.0
 40
2.700272
 41
0.0
 71
     1
 72
     2
  1
\W0.50;\fMS Gothic|b0|i0|c128;(25)
  7
STD
210
0.0
220
0.0
230
1.0
 11
0.0
 21
1.0
 31
0.0
 73
     1
 44
1.0
  0
LINE
  5
25E
100
AcDbEntity
  8
LAYER_1
 62
     7
100
AcDbLine
 10
53.167814
 20
178.835423
 30
0.0
 11
53.167814
 21
174.844797
 31
0.0
  0
POLYLINE
  5
259
100
AcDbEntity
  8
LAYER_1
 62
     7
100
AcDb2dPolyline
 66
     1
 10
0.0
 20
0.0
 30
0.0
  0
VERTEX
  5
25A
100
AcDbEntity
  8
LAYER_1
 62
     7
100
AcDbVertex
100
AcDb2dVertex
 10
59.262877
 20
178.835423
 30
0.0
  0
VERTEX
  5
25B
100
AcDbEntity
  8
LAYER_1
 62
     7
100
AcDbVertex
100
AcDb2dVertex
 10
53.167814
 20
178.835423
 30
0.0
  0
VERTEX
  5
25C
100
AcDbEntity
  8
LAYER_1
 62
     7
100
AcDbVertex
100
AcDb2dVertex
 10
53.167814
 20
186.39448
 30
0.0
  0
SEQEND
  5
25D
100
AcDbEntity
  8
LAYER_1
 62
     7
  0
LINE
  5
258
100
AcDbEntity
  8
LAYER_1
 62
     7
100
AcDbLine
 10
73.620829
 20
182.224192
 30
0.0
 11
53.167814
 21
182.224192
 31
0.0
  0
MTEXT
  5
257
100
AcDbEntity
  8
LAYER_1
 62
     7
100
AcDbMText
 10
61.163192
 20
217.072545
 30
0.0
 40
2.700272
 41
0.0
 71
     1
 72
     2
  1
\W0.50;\fMS Gothic|b0|i0|c128;(120～150)
  7
KANJISTD
210
0.0
220
0.0
230
1.0
 11
1.000001
 21
0.0
 31
0.0
 73
     1
 44
1.0
  0
POLYLINE
  5
252
100
AcDbEntity
  8
LAYER_1
 62
     7
100
AcDb2dPolyline
 66
     1
 10
0.0
 20
0.0
 30
0.0
  0
VERTEX
  5
253
100
AcDbEntity
  8
LAYER_1
 62
     7
100
AcDbVertex
100
AcDb2dVertex
 10
60.025449
 20
179.61746
 30
0.0
  0
VERTEX
  5
254
100
AcDbEntity
  8
LAYER_1
 62
     7
100
AcDbVertex
100
AcDb2dVertex
 10
60.025449
 20
213.185437
 30
0.0
  0
VERTEX
  5
255
100
AcDbEntity
  8
LAYER_1
 62
     7
100
AcDbVertex
100
AcDb2dVertex
 10
79.463539
 20
213.185437
 30
0.0
  0
SEQEND
  5
256
100
AcDbEntity
  8
LAYER_1
 62
     7
  0
LINE
  5
251
100
AcDbEntity
  8
LAYER_1
 62
     7
100
AcDbLine
 10
79.463539
 20
199.905283
 30
0.0
 11
79.463539
 21
213.185437
 31
0.0
  0
POLYLINE
  5
23E
100
AcDbEntity
  8
LAYER_1
 62
     7
100
AcDb2dPolyline
 66
     1
 10
0.0
 20
0.0
 30
0.0
  0
VERTEX
  5
23F
100
AcDbEntity
  8
LAYER_1
 62
     7
100
AcDbVertex
100
AcDb2dVertex
 10
182.77334
 20
90.100616
 30
0.0
  0
VERTEX
  5
240
100
AcDbEntity
  8
LAYER_1
 62
     7
100
AcDbVertex
100
AcDb2dVertex
 10
60.06369
 20
90.100616
 30
0.0
  0
VERTEX
  5
241
100
AcDbEntity
  8
LAYER_1
 62
     7
100
AcDbVertex
100
AcDb2dVertex
 10
60.060933
 20
178.7679
 30
0.0
  0
VERTEX
  5
242
100
AcDbEntity
  8
LAYER_1
 62
     7
100
AcDbVertex
100
AcDb2dVertex
 10
70.147656
 20
178.7679
 30
0.0
  0
VERTEX
  5
243
100
AcDbEntity
  8
LAYER_1
 62
     7
100
AcDbVertex
100
AcDb2dVertex
 10
70.829613
 20
182.179405
 30
0.0
  0
VERTEX
  5
244
100
AcDbEntity
  8
LAYER_1
 62
     7
100
AcDbVertex
100
AcDb2dVertex
 10
73.557956
 20
182.179405
 30
0.0
  0
VERTEX
  5
245
100
AcDbEntity
  8
LAYER_1
 62
     7
100
AcDbVertex
100
AcDb2dVertex
 10
73.557956
 20
178.7679
 30
0.0
  0
VERTEX
  5
246
100
AcDbEntity
  8
LAYER_1
 62
     7
100
AcDbVertex
100
AcDb2dVertex
 10
77.080222
 20
178.772034
 30
0.0
  0
VERTEX
  5
247
100
AcDbEntity
  8
LAYER_1
 62
     7
100
AcDbVertex
100
AcDb2dVertex
 10
79.288873
 20
180.979306
 30
0.0
  0
VERTEX
  5
248
100
AcDbEntity
  8
LAYER_1
 62
     7
100
AcDbVertex
100
AcDb2dVertex
 10
79.322979
 20
199.146845
 30
0.0
  0
VERTEX
  5
249
100
AcDbEntity
  8
LAYER_1
 62
     7
100
AcDbVertex
100
AcDb2dVertex
 10
76.737779
 20
202.048305
 30
0.0
  0
VERTEX
  5
24A
100
AcDbEntity
  8
LAYER_1
 62
     7
100
AcDbVertex
100
AcDb2dVertex
 10
39.037755
 20
205.479275
 30
0.0
  0
VERTEX
  5
24B
100
AcDbEntity
  8
LAYER_1
 62
     7
100
AcDbVertex
100
AcDb2dVertex
 10
39.033621
 20
201.881906
 30
0.0
  0
VERTEX
  5
24C
100
AcDbEntity
  8
LAYER_1
 62
     7
100
AcDbVertex
100
AcDb2dVertex
 10
32.748905
 20
199.725277
 30
0.0
  0
VERTEX
  5
24D
100
AcDbEntity
  8
LAYER_1
 62
     7
100
AcDbVertex
100
AcDb2dVertex
 10
32.750283
 20
183.720397
 30
0.0
  0
VERTEX
  5
24E
100
AcDbEntity
  8
LAYER_1
 62
     7
100
AcDbVertex
100
AcDb2dVertex
 10
32.754245
 20
165.454845
 30
0.0
  0
VERTEX
  5
24F
100
AcDbEntity
  8
LAYER_1
 62
     7
100
AcDbVertex
100
AcDb2dVertex
 10
32.767853
 20
64.974501
 30
0.0
  0
SEQEND
  5
250
100
AcDbEntity
  8
LAYER_1
 62
     7
  0
MTEXT
  5
23D
100
AcDbEntity
  8
LAYER_1
 62
     7
100
AcDbMText
 10
70.349539
 20
187.791989
 30
0.0
 40
2.700272
 41
0.0
 71
     1
 72
     2
  1
\W0.50;\fMS Gothic|b0|i0|c128;(20)
  7
STD
210
0.0
220
0.0
230
1.0
 11
1.000001
 21
0.0
 31
0.0
 73
     1
 44
1.0
  0
MTEXT
  5
23C
100
AcDbEntity
  8
LAYER_1
 62
     7
100
AcDbMText
 10
76.106293
 20
174.557655
 30
0.0
 40
2.700272
 41
0.0
 71
     1
 72
     2
  1
\W0.50;\fMS Gothic|b0|i0|c128;(25)
  7
STD
210
0.0
220
0.0
230
1.0
 11
1.000001
 21
0.0
 31
0.0
 73
     1
 44
1.0
  0
POLYLINE
  5
237
100
AcDbEntity
  8
LAYER_1
 62
     7
100
AcDb2dPolyline
 66
     1
 10
0.0
 20
0.0
 30
0.0
  0
VERTEX
  5
238
100
AcDbEntity
  8
LAYER_1
 62
     7
100
AcDbVertex
100
AcDb2dVertex
 10
62.002072
 20
212.65472
 30
0.0
  0
VERTEX
  5
239
100
AcDbEntity
  8
LAYER_1
 62
     7
100
AcDbVertex
100
AcDb2dVertex
 10
60.025449
 20
213.185437
 30
0.0
  0
VERTEX
  5
23A
100
AcDbEntity
  8
LAYER_1
 62
     7
100
AcDbVertex
100
AcDb2dVertex
 10
62.002072
 20
213.714776
 30
0.0
  0
SEQEND
  5
23B
100
AcDbEntity
  8
LAYER_1
 62
     7
  0
LINE
  5
236
100
AcDbEntity
  8
LAYER_1
 62
     7
100
AcDbLine
 10
73.571737
 20
171.556626
 30
0.0
 11
80.810055
 21
171.556626
 31
0.0
  0
POLYLINE
  5
231
100
AcDbEntity
  8
LAYER_1
 62
     7
100
AcDb2dPolyline
 66
     1
 10
0.0
 20
0.0
 30
0.0
  0
VERTEX
  5
232
100
AcDbEntity
  8
LAYER_1
 62
     7
100
AcDbVertex
100
AcDb2dVertex
 10
52.637097
 20
176.858628
 30
0.0
  0
VERTEX
  5
233
100
AcDbEntity
  8
LAYER_1
 62
     7
100
AcDbVertex
100
AcDb2dVertex
 10
53.167814
 20
178.835423
 30
0.0
  0
VERTEX
  5
234
100
AcDbEntity
  8
LAYER_1
 62
     7
100
AcDbVertex
100
AcDb2dVertex
 10
53.696981
 20
176.858628
 30
0.0
  0
SEQEND
  5
235
100
AcDbEntity
  8
LAYER_1
 62
     7
  0
POLYLINE
  5
22C
100
AcDbEntity
  8
LAYER_1
 62
     7
100
AcDb2dPolyline
 66
     1
 10
0.0
 20
0.0
 30
0.0
  0
VERTEX
  5
22D
100
AcDbEntity
  8
LAYER_1
 62
     7
100
AcDbVertex
100
AcDb2dVertex
 10
52.637097
 20
184.200643
 30
0.0
  0
VERTEX
  5
22E
100
AcDbEntity
  8
LAYER_1
 62
     7
100
AcDbVertex
100
AcDb2dVertex
 10
53.167814
 20
182.224192
 30
0.0
  0
VERTEX
  5
22F
100
AcDbEntity
  8
LAYER_1
 62
     7
100
AcDbVertex
100
AcDb2dVertex
 10
53.696981
 20
184.200643
 30
0.0
  0
SEQEND
  5
230
100
AcDbEntity
  8
LAYER_1
 62
     7
  0
POLYLINE
  5
227
100
AcDbEntity
  8
LAYER_1
 62
     7
100
AcDb2dPolyline
 66
     1
 10
0.0
 20
0.0
 30
0.0
  0
VERTEX
  5
228
100
AcDbEntity
  8
LAYER_1
 62
     7
100
AcDbVertex
100
AcDb2dVertex
 10
75.54836
 20
171.02677
 30
0.0
  0
VERTEX
  5
229
100
AcDbEntity
  8
LAYER_1
 62
     7
100
AcDbVertex
100
AcDb2dVertex
 10
73.571737
 20
171.556626
 30
0.0
  0
VERTEX
  5
22A
100
AcDbEntity
  8
LAYER_1
 62
     7
100
AcDbVertex
100
AcDb2dVertex
 10
75.54836
 20
172.085965
 30
0.0
  0
SEQEND
  5
22B
100
AcDbEntity
  8
LAYER_1
 62
     7
  0
LINE
  5
226
100
AcDbEntity
  8
LAYER_1
 62
     7
100
AcDbLine
 10
70.792923
 20
184.490031
 30
0.0
 11
65.258377
 21
184.490031
 31
0.0
  0
POLYLINE
  5
221
100
AcDbEntity
  8
LAYER_1
 62
     7
100
AcDb2dPolyline
 66
     1
 10
0.0
 20
0.0
 30
0.0
  0
VERTEX
  5
222
100
AcDbEntity
  8
LAYER_1
 62
     7
100
AcDbVertex
100
AcDb2dVertex
 10
77.486743
 20
212.65472
 30
0.0
  0
VERTEX
  5
223
100
AcDbEntity
  8
LAYER_1
 62
     7
100
AcDbVertex
100
AcDb2dVertex
 10
79.463539
 20
213.185437
 30
0.0
  0
VERTEX
  5
224
100
AcDbEntity
  8
LAYER_1
 62
     7
100
AcDbVertex
100
AcDb2dVertex
 10
77.486743
 20
213.714776
 30
0.0
  0
SEQEND
  5
225
100
AcDbEntity
  8
LAYER_1
 62
     7
  0
POLYLINE
  5
21C
100
AcDbEntity
  8
LAYER_1
 62
     7
100
AcDb2dPolyline
 66
     1
 10
0.0
 20
0.0
 30
0.0
  0
VERTEX
  5
21D
100
AcDbEntity
  8
LAYER_1
 62
     7
100
AcDbVertex
100
AcDb2dVertex
 10
68.816127
 20
183.96052
 30
0.0
  0
VERTEX
  5
21E
100
AcDbEntity
  8
LAYER_1
 62
     7
100
AcDbVertex
100
AcDb2dVertex
 10
70.792923
 20
184.490031
 30
0.0
  0
VERTEX
  5
21F
100
AcDbEntity
  8
LAYER_1
 62
     7
100
AcDbVertex
100
AcDb2dVertex
 10
68.816127
 20
185.019542
 30
0.0
  0
SEQEND
  5
220
100
AcDbEntity
  8
LAYER_1
 62
     7
  0
LINE
  5
21B
100
AcDbEntity
  8
LAYER_1
 62
     7
100
AcDbLine
 10
70.192615
 20
171.556626
 30
0.0
 11
65.67041
 21
171.556626
 31
0.0
  0
POLYLINE
  5
215
100
AcDbEntity
  8
LAYER_1
 62
     7
100
AcDb2dPolyline
 66
     1
 10
0.0
 20
0.0
 30
0.0
  0
VERTEX
  5
216
100
AcDbEntity
  8
LAYER_1
 62
     7
100
AcDbVertex
100
AcDb2dVertex
 10
73.571737
 20
178.173793
 30
0.0
  0
VERTEX
  5
217
100
AcDbEntity
  8
LAYER_1
 62
     7
100
AcDbVertex
100
AcDb2dVertex
 10
73.571737
 20
171.556626
 30
0.0
  0
VERTEX
  5
218
100
AcDbEntity
  8
LAYER_1
 62
     7
100
AcDbVertex
100
AcDb2dVertex
 10
70.192615
 20
171.556626
 30
0.0
  0
VERTEX
  5
219
100
AcDbEntity
  8
LAYER_1
 62
     7
100
AcDbVertex
100
AcDb2dVertex
 10
70.192615
 20
178.113504
 30
0.0
  0
SEQEND
  5
21A
100
AcDbEntity
  8
LAYER_1
 62
     7
  0
POLYLINE
  5
20F
100
AcDbEntity
  8
LAYER_1
 62
     7
100
AcDb2dPolyline
 66
     1
 10
0.0
 20
0.0
 30
0.0
  0
VERTEX
  5
210
100
AcDbEntity
  8
LAYER_1
 62
     7
100
AcDbVertex
100
AcDb2dVertex
 10
73.489743
 20
182.420045
 30
0.0
  0
VERTEX
  5
211
100
AcDbEntity
  8
LAYER_1
 62
     7
100
AcDbVertex
100
AcDb2dVertex
 10
73.489743
 20
184.490031
 30
0.0
  0
VERTEX
  5
212
100
AcDbEntity
  8
LAYER_1
 62
     7
100
AcDbVertex
100
AcDb2dVertex
 10
70.792923
 20
184.490031
 30
0.0
  0
VERTEX
  5
213
100
AcDbEntity
  8
LAYER_1
 62
     7
100
AcDbVertex
100
AcDb2dVertex
 10
70.792923
 20
182.420045
 30
0.0
  0
SEQEND
  5
214
100
AcDbEntity
  8
LAYER_1
 62
     7
  0
LINE
  5
20E
100
AcDbEntity
  8
LAYER_1
 62
     7
100
AcDbLine
 10
94.110535
 20
180.311475
 30
0.0
 11
94.110535
 21
194.430854
 31
0.0
  0
LINE
  5
20D
100
AcDbEntity
  8
LAYER_1
 62
     7
100
AcDbLine
 10
157.017806
 20
205.743859
 30
0.0
 11
157.017806
 21
211.094092
 31
0.0
  0
LINE
  5
20C
100
AcDbEntity
  8
LAYER_1
 62
     7
100
AcDbLine
 10
142.904283
 20
109.67806
 30
0.0
 11
147.552062
 21
109.67806
 31
0.0
  0
POLYLINE
  5
207
100
AcDbEntity
  8
LAYER_1
 62
     7
100
AcDb2dPolyline
 66
     1
 10
0.0
 20
0.0
 30
0.0
  0
VERTEX
  5
208
100
AcDbEntity
  8
LAYER_1
 62
     7
100
AcDbVertex
100
AcDb2dVertex
 10
144.881079
 20
109.148549
 30
0.0
  0
VERTEX
  5
209
100
AcDbEntity
  8
LAYER_1
 62
     7
100
AcDbVertex
100
AcDb2dVertex
 10
142.904283
 20
109.67806
 30
0.0
  0
VERTEX
  5
20A
100
AcDbEntity
  8
LAYER_1
 62
     7
100
AcDbVertex
100
AcDb2dVertex
 10
144.881079
 20
110.207571
 30
0.0
  0
SEQEND
  5
20B
100
AcDbEntity
  8
LAYER_1
 62
     7
  0
LINE
  5
206
100
AcDbEntity
  8
LAYER_1
 62
     7
100
AcDbLine
 10
139.319317
 20
109.778312
 30
0.0
 11
134.671539
 21
109.778312
 31
0.0
  0
LINE
  5
205
100
AcDbEntity
  8
LAYER_1
 62
     7
100
AcDbLine
 10
171.95574
 20
130.414434
 30
0.0
 11
174.363173
 21
130.414434
 31
0.0
  0
LINE
  5
204
100
AcDbEntity
  8
LAYER_1
 62
     7
100
AcDbLine
 10
171.95574
 20
124.957747
 30
0.0
 11
174.363173
 21
124.957747
 31
0.0
  0
LINE
  5
203
100
AcDbEntity
  8
LAYER_1
 62
     7
100
AcDbLine
 10
171.95574
 20
119.501061
 30
0.0
 11
174.363173
 21
119.501061
 31
0.0
  0
POLYLINE
  5
1FE
100
AcDbEntity
  8
LAYER_1
 62
     7
100
AcDb2dPolyline
 66
     1
 10
0.0
 20
0.0
 30
0.0
  0
VERTEX
  5
1FF
100
AcDbEntity
  8
LAYER_1
 62
     7
100
AcDbVertex
100
AcDb2dVertex
 10
171.95574
 20
91.050084
 30
0.0
  0
VERTEX
  5
200
100
AcDbEntity
  8
LAYER_1
 62
     7
100
AcDbVertex
100
AcDb2dVertex
 10
171.95574
 20
136.029595
 30
0.0
  0
VERTEX
  5
201
100
AcDbEntity
  8
LAYER_1
 62
     7
100
AcDbVertex
100
AcDb2dVertex
 10
174.363173
 20
136.029595
 30
0.0
  0
SEQEND
  5
202
100
AcDbEntity
  8
LAYER_1
 62
     7
  0
SPLINE
  5
1FD
100
AcDbEntity
  8
LAYER_1
 62
     7
100
AcDbSpline
210
0.0
220
0.0
230
1.0
 70
     8
 71
     3
 72
    20
 73
    16
 74
     0
 42
0.00000001
 43
0.00000001
 40
0.0
 40
0.0
 40
0.0
 40
0.0
 40
1.0
 40
1.0
 40
1.0
 40
2.0
 40
2.0
 40
2.0
 40
3.0
 40
3.0
 40
3.0
 40
4.0
 40
4.0
 40
4.0
 40
5.0
 40
5.0
 40
5.0
 40
5.0
 10
136.34378797743054
 20
100.17373046874999
 30
0.0
 10
136.25352647569443
 20
100.17373046874999
 30
0.0
 10
136.16671006944443
 20
100.20990397135415
 30
0.0
 10
136.10263129340277
 20
100.27363823784721
 30
0.0
 10
136.03889702690972
 20
100.33771701388888
 30
0.0
 10
136.00306803385416
 20
100.42453342013889
 30
0.0
 10
136.00306803385416
 20
100.51513943142361
 30
0.0
 10
136.09505208333331
 20
100.74079318576388
 30
0.0
 10
136.35136718749999
 20
100.85069173177082
 30
0.0
 10
136.57874348958333
 20
100.76180826822916
 30
0.0
 10
136.64557834201386
 20
100.69704047309027
 30
0.0
 10
136.68381890190972
 20
100.60815700954861
 30
0.0
 10
136.68485243055554
 20
100.51513943142361
 30
0.0
 10
136.68347439236109
 20
100.32703721788194
 30
0.0
 10
136.53189019097221
 20
100.17510850694444
 30
0.0
 10
136.34378797743054
 20
100.17373046874999
 30
0.0
  0
SPLINE
  5
1FC
100
AcDbEntity
  8
LAYER_1
 62
     7
100
AcDbSpline
210
0.0
220
0.0
230
1.0
 70
     8
 71
     3
 72
    17
 73
    13
 74
     0
 42
0.00000001
 43
0.00000001
 40
0.0
 40
0.0
 40
0.0
 40
0.0
 40
1.0
 40
1.0
 40
1.0
 40
2.0
 40
2.0
 40
2.0
 40
3.0
 40
3.0
 40
3.0
 40
4.0
 40
4.0
 40
4.0
 40
4.0
 10
140.75557725694443
 20
104.66544596354166
 30
0.0
 10
140.56781955295136
 20
104.6668240017361
 30
0.0
 10
140.41589084201388
 20
104.8187527126736
 30
0.0
 10
140.41451280381943
 20
105.00651041666666
 30
0.0
 10
140.50684136284721
 20
105.23250868055554
 30
0.0
 10
140.76315646701389
 20
105.34240722656249
 30
0.0
 10
140.9901882595486
 20
105.25352376302082
 30
0.0
 10
141.05736762152776
 20
105.18875596788193
 30
0.0
 10
141.09560818142359
 20
105.09987250434027
 30
0.0
 10
141.09664171006943
 20
105.00651041666666
 30
0.0
 10
141.09526367187499
 20
104.8187527126736
 30
0.0
 10
140.94333496093748
 20
104.6668240017361
 30
0.0
 10
140.75557725694443
 20
104.66544596354166
 30
0.0
  0
SPLINE
  5
1FB
100
AcDbEntity
  8
LAYER_1
 62
     7
100
AcDbSpline
210
0.0
220
0.0
230
1.0
 70
     8
 71
     3
 72
    20
 73
    16
 74
     0
 42
0.00000001
 43
0.00000001
 40
0.0
 40
0.0
 40
0.0
 40
0.0
 40
1.0
 40
1.0
 40
1.0
 40
2.0
 40
2.0
 40
2.0
 40
3.0
 40
3.0
 40
3.0
 40
4.0
 40
4.0
 40
4.0
 40
5.0
 40
5.0
 40
5.0
 40
5.0
 10
171.95574001736111
 20
100.83553331163193
 30
0.0
 10
171.76763780381944
 20
100.83691134982638
 30
0.0
 10
171.61605360243053
 20
100.98884006076388
 30
0.0
 10
171.61467556423611
 20
101.17659776475693
 30
0.0
 10
171.70700412326389
 20
101.40294053819443
 30
0.0
 10
171.96400824652775
 20
101.51283908420137
 30
0.0
 10
172.19172905815969
 20
101.4236111111111
 30
0.0
 10
172.25821940104166
 20
101.3584988064236
 30
0.0
 10
172.29577094184026
 20
101.26961534288193
 30
0.0
 10
172.29680447048611
 20
101.17659776475693
 30
0.0
 10
172.29680447048611
 20
101.08633626302083
 30
0.0
 10
172.26063096788192
 20
100.99951985677082
 30
0.0
 10
172.19689670138888
 20
100.93544108072916
 30
0.0
 10
172.13281792534721
 20
100.87136230468749
 30
0.0
 10
172.04600151909722
 20
100.83553331163193
 30
0.0
 10
171.95574001736111
 20
100.83553331163193
 30
0.0
  0
SPLINE
  5
1FA
100
AcDbEntity
  8
LAYER_1
 62
     7
100
AcDbSpline
210
0.0
220
0.0
230
1.0
 70
     8
 71
     3
 72
    20
 73
    16
 74
     0
 42
0.00000001
 43
0.00000001
 40
0.0
 40
0.0
 40
0.0
 40
0.0
 40
1.0
 40
1.0
 40
1.0
 40
2.0
 40
2.0
 40
2.0
 40
3.0
 40
3.0
 40
3.0
 40
4.0
 40
4.0
 40
4.0
 40
5.0
 40
5.0
 40
5.0
 40
5.0
 10
171.95574001736111
 20
95.830843098958326
 30
0.0
 10
171.76798231336804
 20
95.832221137152771
 30
0.0
 10
171.61605360243053
 20
95.983805338541657
 30
0.0
 10
171.61467556423611
 20
96.171907552083326
 30
0.0
 10
171.61605360243053
 20
96.359320746527771
 30
0.0
 10
171.76763780381944
 20
96.51159396701388
 30
0.0
 10
171.95574001736111
 20
96.512972005208326
 30
0.0
 10
172.04600151909722
 20
96.512972005208326
 30
0.0
 10
172.13281792534721
 20
96.476798502604154
 30
0.0
 10
172.19689670138888
 20
96.413064236111097
 30
0.0
 10
172.26063096788192
 20
96.348985460069429
 30
0.0
 10
172.29680447048611
 20
96.262169053819434
 30
0.0
 10
172.29680447048611
 20
96.171907552083326
 30
0.0
 10
172.29542643229166
 20
95.983805338541657
 30
0.0
 10
172.14315321180553
 20
95.832221137152771
 30
0.0
 10
171.95574001736111
 20
95.830843098958326
 30
0.0
  0
SPLINE
  5
1F9
100
AcDbEntity
  8
LAYER_1
 62
     7
100
AcDbSpline
210
0.0
220
0.0
230
1.0
 70
     8
 71
     3
 72
    20
 73
    16
 74
     0
 42
0.00000001
 43
0.00000001
 40
0.0
 40
0.0
 40
0.0
 40
0.0
 40
1.0
 40
1.0
 40
1.0
 40
2.0
 40
2.0
 40
2.0
 40
3.0
 40
3.0
 40
3.0
 40
4.0
 40
4.0
 40
4.0
 40
5.0
 40
5.0
 40
5.0
 40
5.0
 10
171.95574001736111
 20
93.436157226562486
 30
0.0
 10
171.76763780381944
 20
93.437535264756931
 30
0.0
 10
171.61605360243053
 20
93.589463975694443
 30
0.0
 10
171.61467556423611
 20
93.777566189236097
 30
0.0
 10
171.70700412326389
 20
94.003564453124994
 30
0.0
 10
171.96400824652775
 20
94.11346299913194
 30
0.0
 10
172.19172905815969
 20
94.024235026041652
 30
0.0
 10
172.25821940104166
 20
93.959122721354163
 30
0.0
 10
172.29577094184026
 20
93.870239257812486
 30
0.0
 10
172.29680447048611
 20
93.777566189236097
 30
0.0
 10
172.29680447048611
 20
93.686960177951377
 30
0.0
 10
172.26063096788192
 20
93.600143771701383
 30
0.0
 10
172.19689670138888
 20
93.536409505208326
 30
0.0
 10
172.13281792534721
 20
93.472330729166657
 30
0.0
 10
172.04600151909722
 20
93.436157226562486
 30
0.0
 10
171.95574001736111
 20
93.436157226562486
 30
0.0
  0
SPLINE
  5
1F8
100
AcDbEntity
  8
LAYER_1
 62
     7
100
AcDbSpline
210
0.0
220
0.0
230
1.0
 70
     8
 71
     3
 72
    20
 73
    16
 74
     0
 42
0.00000001
 43
0.00000001
 40
0.0
 40
0.0
 40
0.0
 40
0.0
 40
1.0
 40
1.0
 40
1.0
 40
2.0
 40
2.0
 40
2.0
 40
3.0
 40
3.0
 40
3.0
 40
4.0
 40
4.0
 40
4.0
 40
5.0
 40
5.0
 40
5.0
 40
5.0
 10
171.95574001736111
 20
90.709364149305543
 30
0.0
 10
171.76798231336804
 20
90.710742187499989
 30
0.0
 10
171.61605360243053
 20
90.862326388888874
 30
0.0
 10
171.61467556423611
 20
91.050084092881931
 30
0.0
 10
171.61605360243053
 20
91.2381863064236
 30
0.0
 10
171.76763780381944
 20
91.390115017361097
 30
0.0
 10
171.95574001736111
 20
91.391493055555543
 30
0.0
 10
172.04600151909722
 20
91.391493055555543
 30
0.0
 10
172.13281792534721
 20
91.355319552951386
 30
0.0
 10
172.19689670138888
 20
91.291585286458329
 30
0.0
 10
172.26063096788192
 20
91.22750651041666
 30
0.0
 10
172.29680447048611
 20
91.140690104166652
 30
0.0
 10
172.29680447048611
 20
91.050084092881931
 30
0.0
 10
172.29542643229166
 20
90.862326388888874
 30
0.0
 10
172.14315321180553
 20
90.710742187499989
 30
0.0
 10
171.95574001736111
 20
90.709364149305543
 30
0.0
  0
POLYLINE
  5
1F3
100
AcDbEntity
  8
LAYER_1
 62
     7
100
AcDb2dPolyline
 66
     1
 10
0.0
 20
0.0
 30
0.0
  0
VERTEX
  5
1F4
100
AcDbEntity
  8
LAYER_1
 62
     7
100
AcDbVertex
100
AcDb2dVertex
 10
62.693675
 20
169.300605
 30
0.0
  0
VERTEX
  5
1F5
100
AcDbEntity
  8
LAYER_1
 62
     7
100
AcDbVertex
100
AcDb2dVertex
 10
54.762549
 20
162.250562
 30
0.0
  0
VERTEX
  5
1F6
100
AcDbEntity
  8
LAYER_1
 62
     7
100
AcDbVertex
100
AcDb2dVertex
 10
52.436593
 20
162.250562
 30
0.0
  0
SEQEND
  5
1F7
100
AcDbEntity
  8
LAYER_1
 62
     7
  0
POLYLINE
  5
1EE
100
AcDbEntity
  8
LAYER_1
 62
     7
100
AcDb2dPolyline
 66
     1
 10
0.0
 20
0.0
 30
0.0
  0
VERTEX
  5
1EF
100
AcDbEntity
  8
LAYER_1
 62
     7
100
AcDbVertex
100
AcDb2dVertex
 10
72.518571
 20
180.02846
 30
0.0
  0
VERTEX
  5
1F0
100
AcDbEntity
  8
LAYER_1
 62
     7
100
AcDbVertex
100
AcDb2dVertex
 10
52.558032
 20
215.314851
 30
0.0
  0
VERTEX
  5
1F1
100
AcDbEntity
  8
LAYER_1
 62
     7
100
AcDbVertex
100
AcDb2dVertex
 10
50.230698
 20
215.314851
 30
0.0
  0
SEQEND
  5
1F2
100
AcDbEntity
  8
LAYER_1
 62
     7
  0
SPLINE
  5
1ED
100
AcDbEntity
  8
LAYER_1
 62
     7
100
AcDbSpline
210
0.0
220
0.0
230
1.0
 70
     8
 71
     3
 72
    17
 73
    13
 74
     0
 42
0.00000001
 43
0.00000001
 40
0.0
 40
0.0
 40
0.0
 40
0.0
 40
1.0
 40
1.0
 40
1.0
 40
2.0
 40
2.0
 40
2.0
 40
3.0
 40
3.0
 40
3.0
 40
4.0
 40
4.0
 40
4.0
 40
4.0
 10
72.569041612413187
 20
179.64019775390622
 30
0.0
 10
72.364058430989573
 20
179.64157579210067
 30
0.0
 10
72.19817708333332
 20
179.80711263020831
 30
0.0
 10
72.196626790364576
 20
180.01209581163192
 30
0.0
 10
72.291883680555543
 20
180.25807562934025
 30
0.0
 10
72.567146809895831
 20
180.38209906684025
 30
0.0
 10
72.814504665798609
 20
180.2902872721354
 30
0.0
 10
72.893397352430554
 20
180.21914605034721
 30
0.0
 10
72.939044867621519
 20
180.11820475260416
 30
0.0
 10
72.939906141493054
 20
180.01209581163192
 30
0.0
 10
72.93887261284722
 20
179.80745713975693
 30
0.0
 10
72.773508029513877
 20
179.64192030164929
 30
0.0
 10
72.569041612413187
 20
179.64019775390622
 30
0.0
  0
POLYLINE
  5
1E8
100
AcDbEntity
  8
LAYER_1
 62
     7
100
AcDb2dPolyline
 66
     1
 10
0.0
 20
0.0
 30
0.0
  0
VERTEX
  5
1E9
100
AcDbEntity
  8
LAYER_1
 62
     7
100
AcDbVertex
100
AcDb2dVertex
 10
62.502817
 20
175.877637
 30
0.0
  0
VERTEX
  5
1EA
100
AcDbEntity
  8
LAYER_1
 62
     7
100
AcDbVertex
100
AcDb2dVertex
 10
42.5409
 20
211.163683
 30
0.0
  0
VERTEX
  5
1EB
100
AcDbEntity
  8
LAYER_1
 62
     7
100
AcDbVertex
100
AcDb2dVertex
 10
40.214944
 20
211.163683
 30
0.0
  0
SEQEND
  5
1EC
100
AcDbEntity
  8
LAYER_1
 62
     7
  0
SPLINE
  5
1E7
100
AcDbEntity
  8
LAYER_1
 62
     7
100
AcDbSpline
210
0.0
220
0.0
230
1.0
 70
     8
 71
     3
 72
    17
 73
    13
 74
     0
 42
0.00000001
 43
0.00000001
 40
0.0
 40
0.0
 40
0.0
 40
0.0
 40
1.0
 40
1.0
 40
1.0
 40
2.0
 40
2.0
 40
2.0
 40
3.0
 40
3.0
 40
3.0
 40
4.0
 40
4.0
 40
4.0
 40
4.0
 10
62.55190972222222
 20
175.48954671223956
 30
0.0
 10
62.347443305121523
 20
175.49109700520833
 30
0.0
 10
62.182078721788187
 20
175.65663384331594
 30
0.0
 10
62.180872938368047
 20
175.86127251519096
 30
0.0
 10
62.276129828559021
 20
176.10725233289929
 30
0.0
 10
62.551392957899303
 20
176.23110351562499
 30
0.0
 10
62.79875081380208
 20
176.13929172092011
 30
0.0
 10
62.877643500434019
 20
176.06832275390624
 30
0.0
 10
62.923291015624997
 20
175.96738145616317
 30
0.0
 10
62.924324544270824
 20
175.86127251519096
 30
0.0
 10
62.922601996527774
 20
175.65628933376735
 30
0.0
 10
62.756892903645827
 20
175.49075249565971
 30
0.0
 10
62.55190972222222
 20
175.48954671223956
 30
0.0
  0
POLYLINE
  5
1E2
100
AcDbEntity
  8
LAYER_1
 62
     7
100
AcDb2dPolyline
 66
     1
 10
0.0
 20
0.0
 30
0.0
  0
VERTEX
  5
1E3
100
AcDbEntity
  8
LAYER_1
 62
     7
100
AcDbVertex
100
AcDb2dVertex
 10
74.762534
 20
202.186108
 30
0.0
  0
VERTEX
  5
1E4
100
AcDbEntity
  8
LAYER_1
 62
     7
100
AcDbVertex
100
AcDb2dVertex
 10
85.512265
 20
220.67473
 30
0.0
  0
VERTEX
  5
1E5
100
AcDbEntity
  8
LAYER_1
 62
     7
100
AcDbVertex
100
AcDb2dVertex
 10
87.838222
 20
220.67473
 30
0.0
  0
SEQEND
  5
1E6
100
AcDbEntity
  8
LAYER_1
 62
     7
  0
SPLINE
  5
1E1
100
AcDbEntity
  8
LAYER_1
 62
     7
100
AcDbSpline
210
0.0
220
0.0
230
1.0
 70
     8
 71
     3
 72
    17
 73
    13
 74
     0
 42
0.00000001
 43
0.00000001
 40
0.0
 40
0.0
 40
0.0
 40
0.0
 40
1.0
 40
1.0
 40
1.0
 40
2.0
 40
2.0
 40
2.0
 40
3.0
 40
3.0
 40
3.0
 40
4.0
 40
4.0
 40
4.0
 40
4.0
 10
75.058639865451383
 20
201.91325683593749
 30
0.0
 10
75.137015787760404
 20
201.98457031249998
 30
0.0
 10
75.182146538628459
 20
202.08551161024303
 30
0.0
 10
75.182663302951383
 20
202.19162055121527
 30
0.0
 10
75.181285264756937
 20
202.39591471354166
 30
0.0
 10
75.015920681423609
 20
202.56127929687497
 30
0.0
 10
74.811626519097217
 20
202.56265733506942
 30
0.0
 10
74.606987847222214
 20
202.5614515516493
 30
0.0
 10
74.441106499565961
 20
202.39625922309025
 30
0.0
 10
74.439211697048606
 20
202.19162055121527
 30
0.0
 10
74.534813096788184
 20
201.94512396918401
 30
0.0
 10
74.810765245225681
 20
201.82127278645831
 30
0.0
 10
75.058639865451383
 20
201.91325683593749
 30
0.0
  0
POLYLINE
  5
1DC
100
AcDbEntity
  8
LAYER_1
 62
     7
100
AcDb2dPolyline
 66
     1
 10
0.0
 20
0.0
 30
0.0
  0
VERTEX
  5
1DD
100
AcDbEntity
  8
LAYER_1
 62
     7
100
AcDbVertex
100
AcDb2dVertex
 10
71.964772
 20
139.526367
 30
0.0
  0
VERTEX
  5
1DE
100
AcDbEntity
  8
LAYER_1
 62
     7
100
AcDbVertex
100
AcDb2dVertex
 10
85.179469
 20
162.641235
 30
0.0
  0
VERTEX
  5
1DF
100
AcDbEntity
  8
LAYER_1
 62
     7
100
AcDbVertex
100
AcDb2dVertex
 10
87.505253
 20
162.641235
 30
0.0
  0
SEQEND
  5
1E0
100
AcDbEntity
  8
LAYER_1
 62
     7
  0
SPLINE
  5
1DB
100
AcDbEntity
  8
LAYER_1
 62
     7
100
AcDbSpline
210
0.0
220
0.0
230
1.0
 70
     8
 71
     3
 72
    17
 73
    13
 74
     0
 42
0.00000001
 43
0.00000001
 40
0.0
 40
0.0
 40
0.0
 40
0.0
 40
1.0
 40
1.0
 40
1.0
 40
2.0
 40
2.0
 40
2.0
 40
3.0
 40
3.0
 40
3.0
 40
4.0
 40
4.0
 40
4.0
 40
4.0
 10
72.162520345052073
 20
139.23146701388887
 30
0.0
 10
72.241413031684019
 20
139.30278049045137
 30
0.0
 10
72.286888292100684
 20
139.40372178819445
 30
0.0
 10
72.287921820746519
 20
139.50983072916665
 30
0.0
 10
72.286199273003461
 20
139.71446940104164
 30
0.0
 10
72.120317925347209
 20
139.88017849392361
 30
0.0
 10
71.915506998697907
 20
139.88155653211805
 30
0.0
 10
71.711040581597217
 20
139.87983398437498
 30
0.0
 10
71.545848253038187
 20
139.71412489149304
 30
0.0
 10
71.544470214843741
 20
139.50983072916665
 30
0.0
 10
71.639727105034709
 20
139.26385091145832
 30
0.0
 10
71.914990234374997
 20
139.13982747395832
 30
0.0
 10
72.162520345052073
 20
139.23146701388887
 30
0.0
  0
POLYLINE
  5
1D6
100
AcDbEntity
  8
LAYER_1
 62
     7
100
AcDb2dPolyline
 66
     1
 10
0.0
 20
0.0
 30
0.0
  0
VERTEX
  5
1D7
100
AcDbEntity
  8
LAYER_1
 62
     7
100
AcDbVertex
100
AcDb2dVertex
 10
63.133097
 20
105.337584
 30
0.0
  0
VERTEX
  5
1D8
100
AcDbEntity
  8
LAYER_1
 62
     7
100
AcDbVertex
100
AcDb2dVertex
 10
82.45371
 20
138.889025
 30
0.0
  0
VERTEX
  5
1D9
100
AcDbEntity
  8
LAYER_1
 62
     7
100
AcDbVertex
100
AcDb2dVertex
 10
84.779666
 20
138.889025
 30
0.0
  0
SEQEND
  5
1DA
100
AcDbEntity
  8
LAYER_1
 62
     7
  0
POLYLINE
  5
1D1
100
AcDbEntity
  8
LAYER_1
 62
     7
100
AcDb2dPolyline
 66
     1
 10
0.0
 20
0.0
 30
0.0
  0
VERTEX
  5
1D2
100
AcDbEntity
  8
LAYER_1
 62
     7
100
AcDbVertex
100
AcDb2dVertex
 10
72.143056
 20
104.422222
 30
0.0
  0
VERTEX
  5
1D3
100
AcDbEntity
  8
LAYER_1
 62
     7
100
AcDbVertex
100
AcDb2dVertex
 10
85.916031
 20
124.228076
 30
0.0
  0
VERTEX
  5
1D4
100
AcDbEntity
  8
LAYER_1
 62
     7
100
AcDbVertex
100
AcDb2dVertex
 10
88.243365
 20
124.228076
 30
0.0
  0
SEQEND
  5
1D5
100
AcDbEntity
  8
LAYER_1
 62
     7
  0
POLYLINE
  5
1CC
100
AcDbEntity
  8
LAYER_1
 62
     7
100
AcDb2dPolyline
 66
     1
 10
0.0
 20
0.0
 30
0.0
  0
VERTEX
  5
1CD
100
AcDbEntity
  8
LAYER_1
 62
     7
100
AcDbVertex
100
AcDb2dVertex
 10
74.318461
 20
109.831367
 30
0.0
  0
VERTEX
  5
1CE
100
AcDbEntity
  8
LAYER_1
 62
     7
100
AcDbVertex
100
AcDb2dVertex
 10
87.360559
 20
129.371604
 30
0.0
  0
VERTEX
  5
1CF
100
AcDbEntity
  8
LAYER_1
 62
     7
100
AcDbVertex
100
AcDb2dVertex
 10
89.686515
 20
129.371604
 30
0.0
  0
SEQEND
  5
1D0
100
AcDbEntity
  8
LAYER_1
 62
     7
  0
LINE
  5
1CB
100
AcDbEntity
  8
LAYER_1
 62
     7
100
AcDbLine
 10
71.669527
 20
83.997974
 30
0.0
 11
75.76609
 21
83.997974
 31
0.0
  0
POLYLINE
  5
1C6
100
AcDbEntity
  8
LAYER_1
 62
     7
100
AcDb2dPolyline
 66
     1
 10
0.0
 20
0.0
 30
0.0
  0
VERTEX
  5
1C7
100
AcDbEntity
  8
LAYER_1
 62
     7
100
AcDbVertex
100
AcDb2dVertex
 10
115.281163
 20
104.614114
 30
0.0
  0
VERTEX
  5
1C8
100
AcDbEntity
  8
LAYER_1
 62
     7
100
AcDbVertex
100
AcDb2dVertex
 10
115.81033
 20
106.590565
 30
0.0
  0
VERTEX
  5
1C9
100
AcDbEntity
  8
LAYER_1
 62
     7
100
AcDbVertex
100
AcDb2dVertex
 10
116.339841
 20
104.614114
 30
0.0
  0
SEQEND
  5
1CA
100
AcDbEntity
  8
LAYER_1
 62
     7
  0
POLYLINE
  5
1C1
100
AcDbEntity
  8
LAYER_1
 62
     7
100
AcDb2dPolyline
 66
     1
 10
0.0
 20
0.0
 30
0.0
  0
VERTEX
  5
1C2
100
AcDbEntity
  8
LAYER_1
 62
     7
100
AcDbVertex
100
AcDb2dVertex
 10
115.283919
 20
98.021924
 30
0.0
  0
VERTEX
  5
1C3
100
AcDbEntity
  8
LAYER_1
 62
     7
100
AcDbVertex
100
AcDb2dVertex
 10
115.814464
 20
96.045473
 30
0.0
  0
VERTEX
  5
1C4
100
AcDbEntity
  8
LAYER_1
 62
     7
100
AcDbVertex
100
AcDb2dVertex
 10
116.343631
 20
98.021924
 30
0.0
  0
SEQEND
  5
1C5
100
AcDbEntity
  8
LAYER_1
 62
     7
  0
POLYLINE
  5
1BC
100
AcDbEntity
  8
LAYER_1
 62
     7
100
AcDb2dPolyline
 66
     1
 10
0.0
 20
0.0
 30
0.0
  0
VERTEX
  5
1BD
100
AcDbEntity
  8
LAYER_1
 62
     7
100
AcDbVertex
100
AcDb2dVertex
 10
80.438845
 20
99.612524
 30
0.0
  0
VERTEX
  5
1BE
100
AcDbEntity
  8
LAYER_1
 62
     7
100
AcDbVertex
100
AcDb2dVertex
 10
80.968184
 20
101.588976
 30
0.0
  0
VERTEX
  5
1BF
100
AcDbEntity
  8
LAYER_1
 62
     7
100
AcDbVertex
100
AcDb2dVertex
 10
81.497523
 20
99.612524
 30
0.0
  0
SEQEND
  5
1C0
100
AcDbEntity
  8
LAYER_1
 62
     7
  0
POLYLINE
  5
1B7
100
AcDbEntity
  8
LAYER_1
 62
     7
100
AcDb2dPolyline
 66
     1
 10
0.0
 20
0.0
 30
0.0
  0
VERTEX
  5
1B8
100
AcDbEntity
  8
LAYER_1
 62
     7
100
AcDbVertex
100
AcDb2dVertex
 10
80.470196
 20
108.727558
 30
0.0
  0
VERTEX
  5
1B9
100
AcDbEntity
  8
LAYER_1
 62
     7
100
AcDbVertex
100
AcDb2dVertex
 10
80.999535
 20
106.751107
 30
0.0
  0
VERTEX
  5
1BA
100
AcDbEntity
  8
LAYER_1
 62
     7
100
AcDbVertex
100
AcDb2dVertex
 10
81.528874
 20
108.727558
 30
0.0
  0
SEQEND
  5
1BB
100
AcDbEntity
  8
LAYER_1
 62
     7
  0
POLYLINE
  5
1B2
100
AcDbEntity
  8
LAYER_1
 62
     7
100
AcDb2dPolyline
 66
     1
 10
0.0
 20
0.0
 30
0.0
  0
VERTEX
  5
1B3
100
AcDbEntity
  8
LAYER_1
 62
     7
100
AcDbVertex
100
AcDb2dVertex
 10
63.970428
 20
75.07242
 30
0.0
  0
VERTEX
  5
1B4
100
AcDbEntity
  8
LAYER_1
 62
     7
100
AcDbVertex
100
AcDb2dVertex
 10
61.993632
 20
75.602276
 30
0.0
  0
VERTEX
  5
1B5
100
AcDbEntity
  8
LAYER_1
 62
     7
100
AcDbVertex
100
AcDb2dVertex
 10
63.970428
 20
76.131443
 30
0.0
  0
SEQEND
  5
1B6
100
AcDbEntity
  8
LAYER_1
 62
     7
  0
POLYLINE
  5
1AD
100
AcDbEntity
  8
LAYER_1
 62
     7
100
AcDb2dPolyline
 66
     1
 10
0.0
 20
0.0
 30
0.0
  0
VERTEX
  5
1AE
100
AcDbEntity
  8
LAYER_1
 62
     7
100
AcDbVertex
100
AcDb2dVertex
 10
37.458006
 20
155.108706
 30
0.0
  0
VERTEX
  5
1AF
100
AcDbEntity
  8
LAYER_1
 62
     7
100
AcDbVertex
100
AcDb2dVertex
 10
35.481211
 20
155.638045
 30
0.0
  0
VERTEX
  5
1B0
100
AcDbEntity
  8
LAYER_1
 62
     7
100
AcDbVertex
100
AcDb2dVertex
 10
37.458006
 20
156.167729
 30
0.0
  0
SEQEND
  5
1B1
100
AcDbEntity
  8
LAYER_1
 62
     7
  0
POLYLINE
  5
1A8
100
AcDbEntity
  8
LAYER_1
 62
     7
100
AcDb2dPolyline
 66
     1
 10
0.0
 20
0.0
 30
0.0
  0
VERTEX
  5
1A9
100
AcDbEntity
  8
LAYER_1
 62
     7
100
AcDbVertex
100
AcDb2dVertex
 10
30.496674
 20
155.22894
 30
0.0
  0
VERTEX
  5
1AA
100
AcDbEntity
  8
LAYER_1
 62
     7
100
AcDbVertex
100
AcDb2dVertex
 10
32.473298
 20
155.758451
 30
0.0
  0
VERTEX
  5
1AB
100
AcDbEntity
  8
LAYER_1
 62
     7
100
AcDbVertex
100
AcDb2dVertex
 10
30.496674
 20
156.288135
 30
0.0
  0
SEQEND
  5
1AC
100
AcDbEntity
  8
LAYER_1
 62
     7
  0
POLYLINE
  5
1A3
100
AcDbEntity
  8
LAYER_1
 62
     7
100
AcDb2dPolyline
 66
     1
 10
0.0
 20
0.0
 30
0.0
  0
VERTEX
  5
1A4
100
AcDbEntity
  8
LAYER_1
 62
     7
100
AcDbVertex
100
AcDb2dVertex
 10
57.899997
 20
155.166928
 30
0.0
  0
VERTEX
  5
1A5
100
AcDbEntity
  8
LAYER_1
 62
     7
100
AcDbVertex
100
AcDb2dVertex
 10
59.876793
 20
155.696612
 30
0.0
  0
VERTEX
  5
1A6
100
AcDbEntity
  8
LAYER_1
 62
     7
100
AcDbVertex
100
AcDb2dVertex
 10
57.899997
 20
156.225951
 30
0.0
  0
SEQEND
  5
1A7
100
AcDbEntity
  8
LAYER_1
 62
     7
  0
POLYLINE
  5
19E
100
AcDbEntity
  8
LAYER_1
 62
     7
100
AcDb2dPolyline
 66
     1
 10
0.0
 20
0.0
 30
0.0
  0
VERTEX
  5
19F
100
AcDbEntity
  8
LAYER_1
 62
     7
100
AcDbVertex
100
AcDb2dVertex
 10
73.646151
 20
83.468118
 30
0.0
  0
VERTEX
  5
1A0
100
AcDbEntity
  8
LAYER_1
 62
     7
100
AcDbVertex
100
AcDb2dVertex
 10
71.669527
 20
83.997974
 30
0.0
  0
VERTEX
  5
1A1
100
AcDbEntity
  8
LAYER_1
 62
     7
100
AcDbVertex
100
AcDb2dVertex
 10
73.646151
 20
84.527485
 30
0.0
  0
SEQEND
  5
1A2
100
AcDbEntity
  8
LAYER_1
 62
     7
  0
LINE
  5
19D
100
AcDbEntity
  8
LAYER_1
 62
     7
100
AcDbLine
 10
61.973134
 20
83.997974
 30
0.0
 11
57.877776
 21
83.997974
 31
0.0
  0
LINE
  5
19C
100
AcDbEntity
  8
LAYER_1
 62
     7
100
AcDbLine
 10
80.958538
 20
101.629628
 30
0.0
 11
80.958538
 21
96.885387
 31
0.0
  0
POLYLINE
  5
197
100
AcDbEntity
  8
LAYER_1
 62
     7
100
AcDb2dPolyline
 66
     1
 10
0.0
 20
0.0
 30
0.0
  0
VERTEX
  5
198
100
AcDbEntity
  8
LAYER_1
 62
     7
100
AcDbVertex
100
AcDb2dVertex
 10
157.526647
 20
200.1113
 30
0.0
  0
VERTEX
  5
199
100
AcDbEntity
  8
LAYER_1
 62
     7
100
AcDbVertex
100
AcDb2dVertex
 10
156.99748
 20
202.087923
 30
0.0
  0
VERTEX
  5
19A
100
AcDbEntity
  8
LAYER_1
 62
     7
100
AcDbVertex
100
AcDb2dVertex
 10
156.468313
 20
200.1113
 30
0.0
  0
SEQEND
  5
19B
100
AcDbEntity
  8
LAYER_1
 62
     7
  0
POLYLINE
  5
192
100
AcDbEntity
  8
LAYER_1
 62
     7
100
AcDb2dPolyline
 66
     1
 10
0.0
 20
0.0
 30
0.0
  0
VERTEX
  5
193
100
AcDbEntity
  8
LAYER_1
 62
     7
100
AcDbVertex
100
AcDb2dVertex
 10
68.215819
 20
171.02677
 30
0.0
  0
VERTEX
  5
194
100
AcDbEntity
  8
LAYER_1
 62
     7
100
AcDbVertex
100
AcDb2dVertex
 10
70.192615
 20
171.556626
 30
0.0
  0
VERTEX
  5
195
100
AcDbEntity
  8
LAYER_1
 62
     7
100
AcDbVertex
100
AcDb2dVertex
 10
68.215819
 20
172.085965
 30
0.0
  0
SEQEND
  5
196
100
AcDbEntity
  8
LAYER_1
 62
     7
  0
POLYLINE
  5
18D
100
AcDbEntity
  8
LAYER_1
 62
     7
100
AcDb2dPolyline
 66
     1
 10
0.0
 20
0.0
 30
0.0
  0
VERTEX
  5
18E
100
AcDbEntity
  8
LAYER_1
 62
     7
100
AcDbVertex
100
AcDb2dVertex
 10
94.633156
 20
176.448489
 30
0.0
  0
VERTEX
  5
18F
100
AcDbEntity
  8
LAYER_1
 62
     7
100
AcDbVertex
100
AcDb2dVertex
 10
94.103817
 20
178.425113
 30
0.0
  0
VERTEX
  5
190
100
AcDbEntity
  8
LAYER_1
 62
     7
100
AcDbVertex
100
AcDb2dVertex
 10
93.574478
 20
176.448489
 30
0.0
  0
SEQEND
  5
191
100
AcDbEntity
  8
LAYER_1
 62
     7
  0
POLYLINE
  5
188
100
AcDbEntity
  8
LAYER_1
 62
     7
100
AcDb2dPolyline
 66
     1
 10
0.0
 20
0.0
 30
0.0
  0
VERTEX
  5
189
100
AcDbEntity
  8
LAYER_1
 62
     7
100
AcDbVertex
100
AcDb2dVertex
 10
93.57999
 20
182.288098
 30
0.0
  0
VERTEX
  5
18A
100
AcDbEntity
  8
LAYER_1
 62
     7
100
AcDbVertex
100
AcDb2dVertex
 10
94.110535
 20
180.311475
 30
0.0
  0
VERTEX
  5
18B
100
AcDbEntity
  8
LAYER_1
 62
     7
100
AcDbVertex
100
AcDb2dVertex
 10
94.639874
 20
182.288098
 30
0.0
  0
SEQEND
  5
18C
100
AcDbEntity
  8
LAYER_1
 62
     7
  0
POLYLINE
  5
183
100
AcDbEntity
  8
LAYER_1
 62
     7
100
AcDb2dPolyline
 66
     1
 10
0.0
 20
0.0
 30
0.0
  0
VERTEX
  5
184
100
AcDbEntity
  8
LAYER_1
 62
     7
100
AcDbVertex
100
AcDb2dVertex
 10
157.526647
 20
176.568723
 30
0.0
  0
VERTEX
  5
185
100
AcDbEntity
  8
LAYER_1
 62
     7
100
AcDbVertex
100
AcDb2dVertex
 10
156.99748
 20
178.545519
 30
0.0
  0
VERTEX
  5
186
100
AcDbEntity
  8
LAYER_1
 62
     7
100
AcDbVertex
100
AcDb2dVertex
 10
156.468313
 20
176.568723
 30
0.0
  0
SEQEND
  5
187
100
AcDbEntity
  8
LAYER_1
 62
     7
  0
POLYLINE
  5
17E
100
AcDbEntity
  8
LAYER_1
 62
     7
100
AcDb2dPolyline
 66
     1
 10
0.0
 20
0.0
 30
0.0
  0
VERTEX
  5
17F
100
AcDbEntity
  8
LAYER_1
 62
     7
100
AcDbVertex
100
AcDb2dVertex
 10
139.159465
 20
75.07242
 30
0.0
  0
VERTEX
  5
180
100
AcDbEntity
  8
LAYER_1
 62
     7
100
AcDbVertex
100
AcDb2dVertex
 10
141.13626
 20
75.602276
 30
0.0
  0
VERTEX
  5
181
100
AcDbEntity
  8
LAYER_1
 62
     7
100
AcDbVertex
100
AcDb2dVertex
 10
139.159465
 20
76.131443
 30
0.0
  0
SEQEND
  5
182
100
AcDbEntity
  8
LAYER_1
 62
     7
  0
POLYLINE
  5
179
100
AcDbEntity
  8
LAYER_1
 62
     7
100
AcDb2dPolyline
 66
     1
 10
0.0
 20
0.0
 30
0.0
  0
VERTEX
  5
17A
100
AcDbEntity
  8
LAYER_1
 62
     7
100
AcDbVertex
100
AcDb2dVertex
 10
59.997716
 20
83.468118
 30
0.0
  0
VERTEX
  5
17B
100
AcDbEntity
  8
LAYER_1
 62
     7
100
AcDbVertex
100
AcDb2dVertex
 10
61.973134
 20
83.997974
 30
0.0
  0
VERTEX
  5
17C
100
AcDbEntity
  8
LAYER_1
 62
     7
100
AcDbVertex
100
AcDb2dVertex
 10
59.997716
 20
84.527485
 30
0.0
  0
SEQEND
  5
17D
100
AcDbEntity
  8
LAYER_1
 62
     7
  0
POLYLINE
  5
174
100
AcDbEntity
  8
LAYER_1
 62
     7
100
AcDb2dPolyline
 66
     1
 10
0.0
 20
0.0
 30
0.0
  0
VERTEX
  5
175
100
AcDbEntity
  8
LAYER_1
 62
     7
100
AcDbVertex
100
AcDb2dVertex
 10
156.528258
 20
109.008333
 30
0.0
  0
VERTEX
  5
176
100
AcDbEntity
  8
LAYER_1
 62
     7
100
AcDbVertex
100
AcDb2dVertex
 10
157.057425
 20
107.031538
 30
0.0
  0
VERTEX
  5
177
100
AcDbEntity
  8
LAYER_1
 62
     7
100
AcDbVertex
100
AcDb2dVertex
 10
157.586936
 20
109.008333
 30
0.0
  0
SEQEND
  5
178
100
AcDbEntity
  8
LAYER_1
 62
     7
  0
POLYLINE
  5
16F
100
AcDbEntity
  8
LAYER_1
 62
     7
100
AcDb2dPolyline
 66
     1
 10
0.0
 20
0.0
 30
0.0
  0
VERTEX
  5
170
100
AcDbEntity
  8
LAYER_1
 62
     7
100
AcDbVertex
100
AcDb2dVertex
 10
156.468313
 20
207.765613
 30
0.0
  0
VERTEX
  5
171
100
AcDbEntity
  8
LAYER_1
 62
     7
100
AcDbVertex
100
AcDb2dVertex
 10
156.99748
 20
205.788989
 30
0.0
  0
VERTEX
  5
172
100
AcDbEntity
  8
LAYER_1
 62
     7
100
AcDbVertex
100
AcDb2dVertex
 10
157.526647
 20
207.765613
 30
0.0
  0
SEQEND
  5
173
100
AcDbEntity
  8
LAYER_1
 62
     7
  0
POLYLINE
  5
16A
100
AcDbEntity
  8
LAYER_1
 62
     7
100
AcDb2dPolyline
 66
     1
 10
0.0
 20
0.0
 30
0.0
  0
VERTEX
  5
16B
100
AcDbEntity
  8
LAYER_1
 62
     7
100
AcDbVertex
100
AcDb2dVertex
 10
156.468313
 20
180.52197
 30
0.0
  0
VERTEX
  5
16C
100
AcDbEntity
  8
LAYER_1
 62
     7
100
AcDbVertex
100
AcDb2dVertex
 10
156.99748
 20
178.545519
 30
0.0
  0
VERTEX
  5
16D
100
AcDbEntity
  8
LAYER_1
 62
     7
100
AcDbVertex
100
AcDb2dVertex
 10
157.526647
 20
180.52197
 30
0.0
  0
SEQEND
  5
16E
100
AcDbEntity
  8
LAYER_1
 62
     7
  0
POLYLINE
  5
165
100
AcDbEntity
  8
LAYER_1
 62
     7
100
AcDb2dPolyline
 66
     1
 10
0.0
 20
0.0
 30
0.0
  0
VERTEX
  5
166
100
AcDbEntity
  8
LAYER_1
 62
     7
100
AcDbVertex
100
AcDb2dVertex
 10
137.342521
 20
109.248801
 30
0.0
  0
VERTEX
  5
167
100
AcDbEntity
  8
LAYER_1
 62
     7
100
AcDbVertex
100
AcDb2dVertex
 10
139.319317
 20
109.778312
 30
0.0
  0
VERTEX
  5
168
100
AcDbEntity
  8
LAYER_1
 62
     7
100
AcDbVertex
100
AcDb2dVertex
 10
137.342521
 20
110.307823
 30
0.0
  0
SEQEND
  5
169
100
AcDbEntity
  8
LAYER_1
 62
     7
  0
MTEXT
  5
164
100
AcDbEntity
  8
LAYER_1
 62
     7
100
AcDbMText
 10
153.665721
 20
136.891558
 30
0.0
 40
2.700272
 41
0.0
 71
     1
 72
     2
  1
\W0.50;\fMS Gothic|b0|i0|c128;乾式保護工法  600以下
  7
KANJISTD
210
0.0
220
0.0
230
1.0
 11
0.0
 21
1.0
 31
0.0
 73
     1
 44
1.0
  0
MTEXT
  5
163
100
AcDbEntity
  8
LAYER_1
 62
     7
100
AcDbMText
 10
22.675791
 20
159.00236
 30
0.0
 40
2.700272
 41
0.0
 71
     1
 72
     2
  1
\W0.50;\fMS Gothic|b0|i0|c128;(20)
  7
STD
210
0.0
220
0.0
230
1.0
 11
1.000001
 21
0.0
 31
0.0
 73
     1
 44
1.0
  0
MTEXT
  5
162
100
AcDbEntity
  8
LAYER_1
 62
     7
100
AcDbMText
 10
43.389427
 20
158.76172
 30
0.0
 40
2.700272
 41
0.0
 71
     1
 72
     2
  1
\W0.50;\fMS Gothic|b0|i0|c128;(180)
  7
STD
210
0.0
220
0.0
230
1.0
 11
1.000001
 21
0.0
 31
0.0
 73
     1
 44
1.0
  0
LINE
  5
161
100
AcDbEntity
  8
LAYER_1
 62
     7
100
AcDbLine
 10
59.933982
 20
155.660438
 30
0.0
 11
21.484821
 21
155.660438
 31
0.0
  0
MTEXT
  5
160
100
AcDbEntity
  8
LAYER_1
 62
     7
100
AcDbMText
 10
153.701206
 20
201.85469
 30
0.0
 40
2.700272
 41
0.0
 71
     1
 72
     2
  1
\W0.50;\fMS Gothic|b0|i0|c128;(30)
  7
STD
210
0.0
220
0.0
230
1.0
 11
0.0
 21
1.0
 31
0.0
 73
     1
 44
1.0
  0
MTEXT
  5
15F
100
AcDbEntity
  8
LAYER_1
 62
     7
100
AcDbMText
 10
153.704996
 20
186.136614
 30
0.0
 40
2.700272
 41
0.0
 71
     1
 72
     2
  1
\W0.50;\fMS Gothic|b0|i0|c128;(170)
  7
STD
210
0.0
220
0.0
230
1.0
 11
0.0
 21
1.0
 31
0.0
 73
     1
 44
1.0
  0
MTEXT
  5
15E
100
AcDbEntity
  8
LAYER_1
 62
     7
100
AcDbMText
 10
123.263449
 20
118.647373
 30
0.0
 40
2.700272
 41
0.0
 71
     1
 72
     2
  1
\W0.50;\fMS Gothic|b0|i0|c128;伸縮目地
  7
KANJISTD
210
0.0
220
0.0
230
1.0
 11
1.000001
 21
0.0
 31
0.0
 73
     1
 44
1.0
  0
MTEXT
  5
15D
100
AcDbEntity
  8
LAYER_1
 62
     7
100
AcDbMText
 10
174.872358
 20
131.801436
 30
0.0
 40
2.700272
 41
0.0
 71
     1
 72
     2
  1
\W0.50;\fMS Gothic|b0|i0|c128;フラットヤーンクロス(70g/㎡程度)
  7
KANJISTD
210
0.0
220
0.0
230
1.0
 11
1.000001
 21
0.0
 31
0.0
 73
     1
 44
1.0
  0
MTEXT
  5
15C
100
AcDbEntity
  8
LAYER_1
 62
     7
100
AcDbMText
 10
175.112137
 20
120.652763
 30
0.0
 40
2.700272
 41
0.0
 71
     1
 72
     2
  1
\W0.50;\fMS Gothic|b0|i0|c128;防水層
  7
KANJISTD
210
0.0
220
0.0
230
1.0
 11
1.000001
 21
0.0
 31
0.0
 73
     1
 44
1.0
  0
MTEXT
  5
15B
100
AcDbEntity
  8
LAYER_1
 62
     7
100
AcDbMText
 10
175.273367
 20
126.186964
 30
0.0
 40
2.700272
 41
0.0
 71
     1
 72
     2
  1
\W0.50;\fMS Gothic|b0|i0|c128;断熱材
  7
KANJISTD
210
0.0
220
0.0
230
1.0
 11
1.000001
 21
0.0
 31
0.0
 73
     1
 44
1.0
  0
MTEXT
  5
15A
100
AcDbEntity
  8
LAYER_1
 62
     7
100
AcDbMText
 10
174.550241
 20
137.576794
 30
0.0
 40
2.700272
 41
0.0
 71
     1
 72
     2
  1
\W0.50;\fMS Gothic|b0|i0|c128;押さえコンクリート
  7
KANJISTD
210
0.0
220
0.0
230
1.0
 11
1.000001
 21
0.0
 31
0.0
 73
     1
 44
1.0
  0
MTEXT
  5
159
100
AcDbEntity
  8
LAYER_1
 62
     7
100
AcDbMText
 10
118.971894
 20
114.19562
 30
0.0
 40
2.700272
 41
0.0
 71
     1
 72
     2
  1
\W0.50;\fMS Gothic|b0|i0|c128;溶接金網
  7
KANJISTD
210
0.0
220
0.0
230
1.0
 11
1.000001
 21
0.0
 31
0.0
 73
     1
 44
1.0
  0
POLYLINE
  5
154
100
AcDbEntity
  8
LAYER_1
 62
     7
100
AcDb2dPolyline
 66
     1
 10
0.0
 20
0.0
 30
0.0
  0
VERTEX
  5
155
100
AcDbEntity
  8
LAYER_1
 62
     7
100
AcDbVertex
100
AcDb2dVertex
 10
74.061285
 20
101.629628
 30
0.0
  0
VERTEX
  5
156
100
AcDbEntity
  8
LAYER_1
 62
     7
100
AcDbVertex
100
AcDb2dVertex
 10
80.958538
 20
101.629628
 30
0.0
  0
VERTEX
  5
157
100
AcDbEntity
  8
LAYER_1
 62
     7
100
AcDbVertex
100
AcDb2dVertex
 10
80.958538
 20
113.809418
 30
0.0
  0
SEQEND
  5
158
100
AcDbEntity
  8
LAYER_1
 62
     7
  0
MTEXT
  5
153
100
AcDbEntity
  8
LAYER_1
 62
     7
100
AcDbMText
 10
85.328125
 20
140.343895
 30
0.0
 40
2.700272
 41
0.0
 71
     1
 72
     2
  1
\W0.50;\fMS Gothic|b0|i0|c128;成形緩衝材
  7
KANJISTD
210
0.0
220
0.0
230
1.0
 11
1.000001
 21
0.0
 31
0.0
 73
     1
 44
1.0
  0
MTEXT
  5
152
100
AcDbEntity
  8
LAYER_1
 62
     7
100
AcDbMText
 10
89.09861
 20
125.50518
 30
0.0
 40
2.700272
 41
0.0
 71
     1
 72
     2
  1
\W0.50;\fMS Gothic|b0|i0|c128;アンカー
  7
KANJISTD
210
0.0
220
0.0
230
1.0
 11
1.000001
 21
0.0
 31
0.0
 73
     1
 44
1.0
  0
MTEXT
  5
151
100
AcDbEntity
  8
LAYER_1
 62
     7
100
AcDbMText
 10
90.840099
 20
183.239117
 30
0.0
 40
2.700272
 41
0.0
 71
     1
 72
     2
  1
\W0.50;\fMS Gothic|b0|i0|c128;10程度
  7
KANJISTD
210
0.0
220
0.0
230
1.0
 11
0.0
 21
1.0
 31
0.0
 73
     1
 44
1.0
  0
MTEXT
  5
150
100
AcDbEntity
  8
LAYER_1
 62
     7
100
AcDbMText
 10
81.896631
 20
100.867917
 30
0.0
 40
2.700272
 41
0.0
 71
     1
 72
     2
  1
\W0.50;\fMS Gothic|b0|i0|c128;50以下
  7
KANJISTD
210
0.0
220
0.0
230
1.0
 11
0.0
 21
1.0
 31
0.0
 73
     1
 44
1.0
  0
MTEXT
  5
14F
100
AcDbEntity
  8
LAYER_1
 62
     7
100
AcDbMText
 10
64.517337
 20
87.229824
 30
0.0
 40
2.700272
 41
0.0
 71
     1
 72
     2
  1
\W0.50;\fMS Gothic|b0|i0|c128;30以上
  7
KANJISTD
210
0.0
220
0.0
230
1.0
 11
1.000001
 21
0.0
 31
0.0
 73
     1
 44
1.0
  0
MTEXT
  5
14E
100
AcDbEntity
  8
LAYER_1
 62
     7
100
AcDbMText
 10
95.39435
 20
78.66325
 30
0.0
 40
2.700272
 41
0.0
 71
     1
 72
     2
  1
\W0.50;\fMS Gothic|b0|i0|c128;600程度
  7
KANJISTD
210
0.0
220
0.0
230
1.0
 11
1.000001
 21
0.0
 31
0.0
 73
     1
 44
1.0
  0
MTEXT
  5
14D
100
AcDbEntity
  8
LAYER_1
 62
     7
100
AcDbMText
 10
139.349289
 20
113.313676
 30
0.0
 40
2.700272
 41
0.0
 71
     1
 72
     2
  1
\W0.50;\fMS Gothic|b0|i0|c128;(25)
  7
STD
210
0.0
220
0.0
230
1.0
 11
1.000001
 21
0.0
 31
0.0
 73
     1
 44
1.0
  0
MTEXT
  5
14C
100
AcDbEntity
  8
LAYER_1
 62
     7
100
AcDbMText
 10
112.565732
 20
97.940275
 30
0.0
 40
2.700272
 41
0.0
 71
     1
 72
     2
  1
\W0.50;\fMS Gothic|b0|i0|c128;(80)
  7
STD
210
0.0
220
0.0
230
1.0
 11
0.0
 21
1.0
 31
0.0
 73
     1
 44
1.0
  0
LINE
  5
14B
100
AcDbEntity
  8
LAYER_1
 62
     7
100
AcDbLine
 10
115.814464
 20
96.045473
 30
0.0
 11
115.814464
 21
106.843435
 31
0.0
  0
POLYLINE
  5
145
100
AcDbEntity
  8
LAYER_1
 62
     7
100
AcDb2dPolyline
 66
     1
 10
0.0
 20
0.0
 30
0.0
  0
VERTEX
  5
146
100
AcDbEntity
  8
LAYER_1
 62
     7
100
AcDbVertex
100
AcDb2dVertex
 10
141.13626
 20
94.879997
 30
0.0
  0
VERTEX
  5
147
100
AcDbEntity
  8
LAYER_1
 62
     7
100
AcDbVertex
100
AcDb2dVertex
 10
141.13626
 20
75.602276
 30
0.0
  0
VERTEX
  5
148
100
AcDbEntity
  8
LAYER_1
 62
     7
100
AcDbVertex
100
AcDb2dVertex
 10
62.008446
 20
75.602276
 30
0.0
  0
VERTEX
  5
149
100
AcDbEntity
  8
LAYER_1
 62
     7
100
AcDbVertex
100
AcDb2dVertex
 10
62.008446
 20
83.997974
 30
0.0
  0
SEQEND
  5
14A
100
AcDbEntity
  8
LAYER_1
 62
     7
  0
POLYLINE
  5
13F
100
AcDbEntity
  8
LAYER_1
 62
     7
100
AcDb2dPolyline
 66
     1
 10
0.0
 20
0.0
 30
0.0
  0
VERTEX
  5
140
100
AcDbEntity
  8
LAYER_1
 62
     7
100
AcDbVertex
100
AcDb2dVertex
 10
142.98042
 20
107.38466
 30
0.0
  0
VERTEX
  5
141
100
AcDbEntity
  8
LAYER_1
 62
     7
100
AcDbVertex
100
AcDb2dVertex
 10
142.98042
 20
109.720779
 30
0.0
  0
VERTEX
  5
142
100
AcDbEntity
  8
LAYER_1
 62
     7
100
AcDbVertex
100
AcDb2dVertex
 10
139.430938
 20
109.720779
 30
0.0
  0
VERTEX
  5
143
100
AcDbEntity
  8
LAYER_1
 62
     7
100
AcDbVertex
100
AcDb2dVertex
 10
139.430938
 20
107.38466
 30
0.0
  0
SEQEND
  5
144
100
AcDbEntity
  8
LAYER_1
 62
     7
  0
POLYLINE
  5
139
100
AcDbEntity
  8
LAYER_1
 62
     7
100
AcDb2dPolyline
 66
     1
 10
0.0
 20
0.0
 30
0.0
 70
     1
  0
VERTEX
  5
13A
100
AcDbEntity
  8
LAYER_1
 62
     7
100
AcDbVertex
100
AcDb2dVertex
 10
142.921853
 20
96.274571
 30
0.0
  0
VERTEX
  5
13B
100
AcDbEntity
  8
LAYER_1
 62
     7
100
AcDbVertex
100
AcDb2dVertex
 10
142.921853
 20
106.602623
 30
0.0
  0
VERTEX
  5
13C
100
AcDbEntity
  8
LAYER_1
 62
     7
100
AcDbVertex
100
AcDb2dVertex
 10
139.511553
 20
106.602623
 30
0.0
  0
VERTEX
  5
13D
100
AcDbEntity
  8
LAYER_1
 62
     7
100
AcDbVertex
100
AcDb2dVertex
 10
139.511553
 20
96.274571
 30
0.0
  0
SEQEND
  5
13E
100
AcDbEntity
  8
LAYER_1
 62
     7
  0
POLYLINE
  5
133
100
AcDbEntity
  8
LAYER_1
 62
     7
100
AcDb2dPolyline
 66
     1
 10
0.0
 20
0.0
 30
0.0
  0
VERTEX
  5
134
100
AcDbEntity
  8
LAYER_1
 62
     7
100
AcDbVertex
100
AcDb2dVertex
 10
182.864979
 20
95.664445
 30
0.0
  0
VERTEX
  5
135
100
AcDbEntity
  8
LAYER_1
 62
     7
100
AcDbVertex
100
AcDb2dVertex
 10
70.867853
 20
95.664445
 30
0.0
  0
VERTEX
  5
136
100
AcDbEntity
  8
LAYER_1
 62
     7
100
AcDbVertex
100
AcDb2dVertex
 10
70.867853
 20
92.2538
 30
0.0
  0
VERTEX
  5
137
100
AcDbEntity
  8
LAYER_1
 62
     7
100
AcDbVertex
100
AcDb2dVertex
 10
182.664475
 20
92.2538
 30
0.0
  0
SEQEND
  5
138
100
AcDbEntity
  8
LAYER_1
 62
     7
  0
MTEXT
  5
132
100
AcDbEntity
  8
LAYER_1
 62
     7
100
AcDbMText
 10
87.790335
 20
221.916694
 30
0.0
 40
2.700272
 41
0.0
 71
     1
 72
     2
  1
\W0.50;\fMS Gothic|b0|i0|c128;コンクリートこて仕上げA種
  7
KANJISTD
210
0.0
220
0.0
230
1.0
 11
1.000001
 21
0.0
 31
0.0
 73
     1
 44
1.0
  0
MTEXT
  5
131
100
AcDbEntity
  8
LAYER_1
 62
     7
100
AcDbMText
 10
40.580813
 20
216.698752
 30
0.0
 40
2.700272
 41
0.0
 71
     1
 72
     2
  1
\W0.50;\fMS Gothic|b0|i0|c128;水切り溝
  7
KANJISTD
210
0.0
220
0.0
230
1.0
 11
1.000001
 21
0.0
 31
0.0
 73
     1
 44
1.0
  0
SPLINE
  5
130
100
AcDbEntity
  8
LAYER_1
 62
     7
100
AcDbSpline
210
0.0
220
0.0
230
1.0
 70
     8
 71
     3
 72
    11
 73
     7
 74
     0
 42
0.00000001
 43
0.00000001
 40
0.0
 40
0.0
 40
0.0
 40
0.0
 40
1.0
 40
1.0
 40
1.0
 40
2.0
 40
2.0
 40
2.0
 40
2.0
 10
64.796044921874994
 20
173.33911810980902
 30
0.0
 10
64.561778428819437
 20
174.73851589626736
 30
0.0
 10
64.468071831597214
 20
176.15772298177083
 30
0.0
 10
64.516303168402771
 20
177.57572428385416
 30
0.0
 10
64.551270887586796
 20
177.99929877387152
 30
0.0
 10
64.645494249131943
 20
178.41581081814235
 30
0.0
 10
64.796044921874994
 20
178.81337483723956
 30
0.0
  0
LINE
  5
12F
100
AcDbEntity
  8
LAYER_1
 62
     7
100
AcDbLine
 10
63.917373
 20
173.358238
 30
0.0
 11
64.75367
 21
174.19333
 31
0.0
  0
LINE
  5
12E
100
AcDbEntity
  8
LAYER_1
 62
     7
100
AcDbLine
 10
62.554666
 20
173.358411
 30
0.0
 11
64.476685
 21
175.281463
 31
0.0
  0
LINE
  5
12D
100
AcDbEntity
  8
LAYER_1
 62
     7
100
AcDbLine
 10
61.691153
 20
173.860017
 30
0.0
 11
64.456186
 21
176.625395
 31
0.0
  0
LINE
  5
12C
100
AcDbEntity
  8
LAYER_1
 62
     7
100
AcDbLine
 10
60.789399
 20
174.321659
 30
0.0
 11
64.527327
 21
178.059588
 31
0.0
  0
LINE
  5
12B
100
AcDbEntity
  8
LAYER_1
 62
     7
100
AcDbLine
 10
60.045947
 20
174.94281
 30
0.0
 11
63.723759
 21
178.621311
 31
0.0
  0
LINE
  5
12A
100
AcDbEntity
  8
LAYER_1
 62
     7
100
AcDbLine
 10
60.045947
 20
176.307068
 30
0.0
 11
62.440116
 21
178.701754
 31
0.0
  0
LINE
  5
129
100
AcDbEntity
  8
LAYER_1
 62
     7
100
AcDbLine
 10
60.045947
 20
177.670981
 30
0.0
 11
61.066212
 21
178.692107
 31
0.0
  0
LINE
  5
128
100
AcDbEntity
  8
LAYER_1
 62
     7
100
AcDbLine
 10
54.583748
 20
168.46672
 30
0.0
 11
62.976173
 21
168.46672
 31
0.0
  0
POLYLINE
  5
123
100
AcDbEntity
  8
LAYER_1
 62
     7
100
AcDb2dPolyline
 66
     1
 10
0.0
 20
0.0
 30
0.0
  0
VERTEX
  5
124
100
AcDbEntity
  8
LAYER_1
 62
     7
100
AcDbVertex
100
AcDb2dVertex
 10
64.876488
 20
173.031299
 30
0.0
  0
VERTEX
  5
125
100
AcDbEntity
  8
LAYER_1
 62
     7
100
AcDbVertex
100
AcDb2dVertex
 10
62.673349
 20
173.031299
 30
0.0
  0
VERTEX
  5
126
100
AcDbEntity
  8
LAYER_1
 62
     7
100
AcDbVertex
100
AcDb2dVertex
 10
62.673349
 20
164.218745
 30
0.0
  0
SEQEND
  5
127
100
AcDbEntity
  8
LAYER_1
 62
     7
  0
LINE
  5
122
100
AcDbEntity
  8
LAYER_1
 62
     7
100
AcDbLine
 10
65.934993
 20
83.997974
 30
0.0
 11
64.501317
 21
83.997974
 31
0.0
  0
POLYLINE
  5
11C
100
AcDbEntity
  8
LAYER_1
 62
     7
100
AcDb2dPolyline
 66
     1
 10
0.0
 20
0.0
 30
0.0
  0
VERTEX
  5
11D
100
AcDbEntity
  8
LAYER_1
 62
     7
100
AcDbVertex
100
AcDb2dVertex
 10
78.181274
 20
178.569979
 30
0.0
  0
VERTEX
  5
11E
100
AcDbEntity
  8
LAYER_1
 62
     7
100
AcDbVertex
100
AcDb2dVertex
 10
94.915481
 20
178.569634
 30
0.0
  0
VERTEX
  5
11F
100
AcDbEntity
  8
LAYER_1
 62
     7
100
AcDbVertex
100
AcDb2dVertex
 10
156.99748
 20
178.539317
 30
0.0
  0
VERTEX
  5
120
100
AcDbEntity
  8
LAYER_1
 62
     7
100
AcDbVertex
100
AcDb2dVertex
 10
156.99748
 20
106.436225
 30
0.0
  0
SEQEND
  5
121
100
AcDbEntity
  8
LAYER_1
 62
     7
  0
POLYLINE
  5
117
100
AcDbEntity
  8
LAYER_1
 62
     7
100
AcDb2dPolyline
 66
     1
 10
0.0
 20
0.0
 30
0.0
  0
VERTEX
  5
118
100
AcDbEntity
  8
LAYER_1
 62
     7
100
AcDbVertex
100
AcDb2dVertex
 10
76.416007
 20
180.311475
 30
0.0
  0
VERTEX
  5
119
100
AcDbEntity
  8
LAYER_1
 62
     7
100
AcDbVertex
100
AcDb2dVertex
 10
94.110535
 20
180.311475
 30
0.0
  0
VERTEX
  5
11A
100
AcDbEntity
  8
LAYER_1
 62
     7
100
AcDbVertex
100
AcDb2dVertex
 10
94.110535
 20
172.398607
 30
0.0
  0
SEQEND
  5
11B
100
AcDbEntity
  8
LAYER_1
 62
     7
  0
POLYLINE
  5
112
100
AcDbEntity
  8
LAYER_1
 62
     7
100
AcDb2dPolyline
 66
     1
 10
0.0
 20
0.0
 30
0.0
  0
VERTEX
  5
113
100
AcDbEntity
  8
LAYER_1
 62
     7
100
AcDbVertex
100
AcDb2dVertex
 10
42.086664
 20
205.689426
 30
0.0
  0
VERTEX
  5
114
100
AcDbEntity
  8
LAYER_1
 62
     7
100
AcDbVertex
100
AcDb2dVertex
 10
157.017806
 20
205.689426
 30
0.0
  0
VERTEX
  5
115
100
AcDbEntity
  8
LAYER_1
 62
     7
100
AcDbVertex
100
AcDb2dVertex
 10
157.017806
 20
177.233282
 30
0.0
  0
SEQEND
  5
116
100
AcDbEntity
  8
LAYER_1
 62
     7
  0
LINE
  5
111
100
AcDbEntity
  8
LAYER_1
 62
     7
100
AcDbLine
 10
77.980598
 20
201.896893
 30
0.0
 11
157.038477
 21
201.896893
 31
0.0
  0
MTEXT
  5
110
100
AcDbEntity
  8
LAYER_1
 62
     7
100
AcDbMText
 10
90.113535
 20
130.862992
 30
0.0
 40
2.700272
 41
0.0
 71
     1
 72
     2
  1
\W0.50;\fMS Gothic|b0|i0|c128;下部ホルダー
  7
KANJISTD
210
0.0
220
0.0
230
1.0
 11
1.000001
 21
0.0
 31
0.0
 73
     1
 44
1.0
  0
MTEXT
  5
10F
100
AcDbEntity
  8
LAYER_1
 62
     7
100
AcDbMText
 10
87.858548
 20
163.860806
 30
0.0
 40
2.700272
 41
0.0
 71
     1
 72
     2
  1
\W0.50;\fMS Gothic|b0|i0|c128;ボード
  7
KANJISTD
210
0.0
220
0.0
230
1.0
 11
1.000001
 21
0.0
 31
0.0
 73
     1
 44
1.0
  0
SPLINE
  5
10E
100
AcDbEntity
  8
LAYER_1
 62
     7
100
AcDbSpline
210
0.0
220
0.0
230
1.0
 70
     8
 71
     3
 72
    17
 73
    13
 74
     0
 42
0.00000001
 43
0.00000001
 40
0.0
 40
0.0
 40
0.0
 40
0.0
 40
1.0
 40
1.0
 40
1.0
 40
2.0
 40
2.0
 40
2.0
 40
3.0
 40
3.0
 40
3.0
 40
4.0
 40
4.0
 40
4.0
 40
4.0
 10
177.70698242187498
 20
100.20370279947916
 30
0.0
 10
177.95675184461803
 20
100.36596679687499
 30
0.0
 10
178.10006781684027
 20
100.65018717447916
 30
0.0
 10
178.08215332031247
 20
100.94749891493055
 30
0.0
 10
178.00119357638889
 20
101.33782823350694
 30
0.0
 10
177.64807128906247
 20
101.61067979600693
 30
0.0
 10
177.24981825086803
 20
101.59035373263887
 30
0.0
 10
176.85983344184027
 20
101.50939398871527
 30
0.0
 10
176.58698187934027
 20
101.15627170138887
 30
0.0
 10
176.60730794270833
 20
100.75801866319443
 30
0.0
 10
176.78714192708333
 20
100.32738172743055
 30
0.0
 10
177.25360785590277
 20
100.09173719618055
 30
0.0
 10
177.70698242187498
 20
100.20370279947916
 30
0.0
  0
SPLINE
  5
10D
100
AcDbEntity
  8
LAYER_1
 62
     7
100
AcDbSpline
210
0.0
220
0.0
230
1.0
 70
     8
 71
     3
 72
    17
 73
    13
 74
     0
 42
0.00000001
 43
0.00000001
 40
0.0
 40
0.0
 40
0.0
 40
0.0
 40
1.0
 40
1.0
 40
1.0
 40
2.0
 40
2.0
 40
2.0
 40
3.0
 40
3.0
 40
3.0
 40
4.0
 40
4.0
 40
4.0
 40
4.0
 10
168.15786675347221
 20
100.20370279947916
 30
0.0
 10
168.40763617621525
 20
100.36596679687499
 30
0.0
 10
168.55095214843749
 20
100.65018717447916
 30
0.0
 10
168.53303765190969
 20
100.94749891493055
 30
0.0
 10
168.45207790798611
 20
101.33782823350694
 30
0.0
 10
168.09895562065969
 20
101.61067979600693
 30
0.0
 10
167.70070258246525
 20
101.59035373263887
 30
0.0
 10
167.31071777343749
 20
101.50939398871527
 30
0.0
 10
167.03786621093749
 20
101.15627170138887
 30
0.0
 10
167.05819227430555
 20
100.75801866319443
 30
0.0
 10
167.23768174913192
 20
100.32738172743055
 30
0.0
 10
167.70449218749999
 20
100.09173719618055
 30
0.0
 10
168.15786675347221
 20
100.20370279947916
 30
0.0
  0
SPLINE
  5
10C
100
AcDbEntity
  8
LAYER_1
 62
     7
100
AcDbSpline
210
0.0
220
0.0
230
1.0
 70
     8
 71
     3
 72
    17
 73
    13
 74
     0
 42
0.00000001
 43
0.00000001
 40
0.0
 40
0.0
 40
0.0
 40
0.0
 40
1.0
 40
1.0
 40
1.0
 40
2.0
 40
2.0
 40
2.0
 40
3.0
 40
3.0
 40
3.0
 40
4.0
 40
4.0
 40
4.0
 40
4.0
 10
158.60875108506943
 20
100.20370279947916
 30
0.0
 10
158.85852050781247
 20
100.36596679687499
 30
0.0
 10
159.00149197048609
 20
100.65018717447916
 30
0.0
 10
158.98357747395832
 20
100.94749891493055
 30
0.0
 10
158.90296223958333
 20
101.33782823350694
 30
0.0
 10
158.54949544270832
 20
101.61067979600693
 30
0.0
 10
158.15158691406248
 20
101.59035373263887
 30
0.0
 10
157.76125759548609
 20
101.50939398871527
 30
0.0
 10
157.48875054253472
 20
101.15627170138887
 30
0.0
 10
157.50907660590278
 20
100.75801866319443
 30
0.0
 10
157.68856608072915
 20
100.32738172743055
 30
0.0
 10
158.15537651909722
 20
100.09173719618055
 30
0.0
 10
158.60875108506943
 20
100.20370279947916
 30
0.0
  0
SPLINE
  5
10B
100
AcDbEntity
  8
LAYER_1
 62
     7
100
AcDbSpline
210
0.0
220
0.0
230
1.0
 70
     8
 71
     3
 72
    17
 73
    13
 74
     0
 42
0.00000001
 43
0.00000001
 40
0.0
 40
0.0
 40
0.0
 40
0.0
 40
1.0
 40
1.0
 40
1.0
 40
2.0
 40
2.0
 40
2.0
 40
3.0
 40
3.0
 40
3.0
 40
4.0
 40
4.0
 40
4.0
 40
4.0
 10
149.05929090711805
 20
100.20370279947916
 30
0.0
 10
149.30940483940972
 20
100.36596679687499
 30
0.0
 10
149.45237630208331
 20
100.65018717447916
 30
0.0
 10
149.43446180555554
 20
100.94749891493055
 30
0.0
 10
149.35384657118055
 20
101.33782823350694
 30
0.0
 10
149.00037977430554
 20
101.61067979600693
 30
0.0
 10
148.6024712456597
 20
101.59035373263887
 30
0.0
 10
148.21214192708331
 20
101.50939398871527
 30
0.0
 10
147.93929036458331
 20
101.15627170138887
 30
0.0
 10
147.9599609375
 20
100.75801866319443
 30
0.0
 10
148.13945041232637
 20
100.32738172743055
 30
0.0
 10
148.60626085069444
 20
100.09173719618055
 30
0.0
 10
149.05929090711805
 20
100.20370279947916
 30
0.0
  0
SPLINE
  5
10A
100
AcDbEntity
  8
LAYER_1
 62
     7
100
AcDbSpline
210
0.0
220
0.0
230
1.0
 70
     8
 71
     3
 72
    17
 73
    13
 74
     0
 42
0.00000001
 43
0.00000001
 40
0.0
 40
0.0
 40
0.0
 40
0.0
 40
1.0
 40
1.0
 40
1.0
 40
2.0
 40
2.0
 40
2.0
 40
3.0
 40
3.0
 40
3.0
 40
4.0
 40
4.0
 40
4.0
 40
4.0
 10
133.81198730468748
 20
100.23367513020833
 30
0.0
 10
134.06210123697915
 20
100.39593912760415
 30
0.0
 10
134.20507269965276
 20
100.68015950520832
 30
0.0
 10
134.18715820312499
 20
100.97781575520833
 30
0.0
 10
134.10619845920138
 20
101.36780056423611
 30
0.0
 10
133.75307617187499
 20
101.6406521267361
 30
0.0
 10
133.35516764322915
 20
101.62032606336804
 30
0.0
 10
132.96483832465276
 20
101.53936631944444
 30
0.0
 10
132.69198676215277
 20
101.18624403211804
 30
0.0
 10
132.71265733506942
 20
100.7879909939236
 30
0.0
 10
132.89214680989582
 20
100.35735405815971
 30
0.0
 10
133.35895724826386
 20
100.12205403645832
 30
0.0
 10
133.81198730468748
 20
100.23367513020833
 30
0.0
  0
SPLINE
  5
109
100
AcDbEntity
  8
LAYER_1
 62
     7
100
AcDbSpline
210
0.0
220
0.0
230
1.0
 70
     8
 71
     3
 72
    17
 73
    13
 74
     0
 42
0.00000001
 43
0.00000001
 40
0.0
 40
0.0
 40
0.0
 40
0.0
 40
1.0
 40
1.0
 40
1.0
 40
2.0
 40
2.0
 40
2.0
 40
3.0
 40
3.0
 40
3.0
 40
4.0
 40
4.0
 40
4.0
 40
4.0
 10
124.26287163628471
 20
100.23367513020833
 30
0.0
 10
124.51264105902777
 20
100.39593912760415
 30
0.0
 10
124.65595703124998
 20
100.68015950520832
 30
0.0
 10
124.63804253472222
 20
100.97781575520833
 30
0.0
 10
124.5570827907986
 20
101.36780056423611
 30
0.0
 10
124.20361599392361
 20
101.6406521267361
 30
0.0
 10
123.80570746527776
 20
101.62032606336804
 30
0.0
 10
123.41572265624998
 20
101.53936631944444
 30
0.0
 10
123.14287109374999
 20
101.18624403211804
 30
0.0
 10
123.16354166666666
 20
100.7879909939236
 30
0.0
 10
123.34268663194443
 20
100.35735405815971
 30
0.0
 10
123.8098415798611
 20
100.12205403645832
 30
0.0
 10
124.26287163628471
 20
100.23367513020833
 30
0.0
  0
SPLINE
  5
108
100
AcDbEntity
  8
LAYER_1
 62
     7
100
AcDbSpline
210
0.0
220
0.0
230
1.0
 70
     8
 71
     3
 72
    17
 73
    13
 74
     0
 42
0.00000001
 43
0.00000001
 40
0.0
 40
0.0
 40
0.0
 40
0.0
 40
1.0
 40
1.0
 40
1.0
 40
2.0
 40
2.0
 40
2.0
 40
3.0
 40
3.0
 40
3.0
 40
4.0
 40
4.0
 40
4.0
 40
4.0
 10
105.16429578993055
 20
100.23367513020833
 30
0.0
 10
105.41440972222222
 20
100.39593912760415
 30
0.0
 10
105.55772569444443
 20
100.68015950520832
 30
0.0
 10
105.53946668836805
 20
100.97781575520833
 30
0.0
 10
105.45885145399305
 20
101.36780056423611
 30
0.0
 10
105.10538465711805
 20
101.6406521267361
 30
0.0
 10
104.70747612847221
 20
101.62032606336804
 30
0.0
 10
104.31731906467013
 20
101.53936631944444
 30
0.0
 10
104.04446750217014
 20
101.18624403211804
 30
0.0
 10
104.06496582031249
 20
100.7879909939236
 30
0.0
 10
104.24445529513888
 20
100.35735405815971
 30
0.0
 10
104.71126573350693
 20
100.12205403645832
 30
0.0
 10
105.16429578993055
 20
100.23367513020833
 30
0.0
  0
SPLINE
  5
107
100
AcDbEntity
  8
LAYER_1
 62
     7
100
AcDbSpline
210
0.0
220
0.0
230
1.0
 70
     8
 71
     3
 72
    17
 73
    13
 74
     0
 42
0.00000001
 43
0.00000001
 40
0.0
 40
0.0
 40
0.0
 40
0.0
 40
1.0
 40
1.0
 40
1.0
 40
2.0
 40
2.0
 40
2.0
 40
3.0
 40
3.0
 40
3.0
 40
4.0
 40
4.0
 40
4.0
 40
4.0
 10
95.61535237630207
 20
100.23367513020833
 30
0.0
 10
95.865121799045127
 20
100.39593912760415
 30
0.0
 10
96.008437771267353
 20
100.68015950520832
 30
0.0
 10
95.990523274739573
 20
100.97781575520833
 30
0.0
 10
95.909563530815959
 20
101.36780056423611
 30
0.0
 10
95.556268988715274
 20
101.6406521267361
 30
0.0
 10
95.158188205295133
 20
101.62032606336804
 30
0.0
 10
94.76803114149304
 20
101.53936631944444
 30
0.0
 10
94.495351833767359
 20
101.18624403211804
 30
0.0
 10
94.515850151909717
 20
100.7879909939236
 30
0.0
 10
94.6953396267361
 20
100.35735405815971
 30
0.0
 10
95.162150065104157
 20
100.12205403645832
 30
0.0
 10
95.61535237630207
 20
100.23367513020833
 30
0.0
  0
SPLINE
  5
106
100
AcDbEntity
  8
LAYER_1
 62
     7
100
AcDbSpline
210
0.0
220
0.0
230
1.0
 70
     8
 71
     3
 72
    17
 73
    13
 74
     0
 42
0.00000001
 43
0.00000001
 40
0.0
 40
0.0
 40
0.0
 40
0.0
 40
1.0
 40
1.0
 40
1.0
 40
2.0
 40
2.0
 40
2.0
 40
3.0
 40
3.0
 40
3.0
 40
4.0
 40
4.0
 40
4.0
 40
4.0
 10
86.066064453124994
 20
100.23367513020833
 30
0.0
 10
86.31600613064235
 20
100.39593912760415
 30
0.0
 10
86.459322102864576
 20
100.68015950520832
 30
0.0
 10
86.441235351562497
 20
100.97781575520833
 30
0.0
 10
86.360275607638883
 20
101.36780056423611
 30
0.0
 10
86.007153320312497
 20
101.6406521267361
 30
0.0
 10
85.609072536892356
 20
101.62032606336804
 30
0.0
 10
85.218915473090263
 20
101.53936631944444
 30
0.0
 10
84.946063910590269
 20
101.18624403211804
 30
0.0
 10
84.966562228732627
 20
100.7879909939236
 30
0.0
 10
85.146051703559024
 20
100.35735405815971
 30
0.0
 10
85.612862141927081
 20
100.12205403645832
 30
0.0
 10
86.066064453124994
 20
100.23367513020833
 30
0.0
  0
SPLINE
  5
105
100
AcDbEntity
  8
LAYER_1
 62
     7
100
AcDbSpline
210
0.0
220
0.0
230
1.0
 70
     8
 71
     3
 72
    17
 73
    13
 74
     0
 42
0.00000001
 43
0.00000001
 40
0.0
 40
0.0
 40
0.0
 40
0.0
 40
1.0
 40
1.0
 40
1.0
 40
2.0
 40
2.0
 40
2.0
 40
3.0
 40
3.0
 40
3.0
 40
4.0
 40
4.0
 40
4.0
 40
4.0
 10
76.516948784722217
 20
100.23367513020833
 30
0.0
 10
76.766718207465274
 20
100.39593912760415
 30
0.0
 10
76.9100341796875
 20
100.68015950520832
 30
0.0
 10
76.891947428385407
 20
100.97781575520833
 30
0.0
 10
76.811159939236106
 20
101.36780056423611
 30
0.0
 10
76.457865397135407
 20
101.6406521267361
 30
0.0
 10
76.059956868489579
 20
101.62032606336804
 30
0.0
 10
75.6697998046875
 20
101.53936631944444
 30
0.0
 10
75.396948242187491
 20
101.18624403211804
 30
0.0
 10
75.417274305555551
 20
100.7879909939236
 30
0.0
 10
75.596936035156247
 20
100.35735405815971
 30
0.0
 10
76.063746473524304
 20
100.12205403645832
 30
0.0
 10
76.516948784722217
 20
100.23367513020833
 30
0.0
  0
SPLINE
  5
104
100
AcDbEntity
  8
LAYER_1
 62
     7
100
AcDbSpline
210
0.0
220
0.0
230
1.0
 70
     8
 71
     3
 72
    17
 73
    13
 74
     0
 42
0.00000001
 43
0.00000001
 40
0.0
 40
0.0
 40
0.0
 40
0.0
 40
1.0
 40
1.0
 40
1.0
 40
2.0
 40
2.0
 40
2.0
 40
3.0
 40
3.0
 40
3.0
 40
4.0
 40
4.0
 40
4.0
 40
4.0
 10
72.115494791666663
 20
103.86618381076389
 30
0.0
 10
72.194042968749997
 20
103.93715277777777
 30
0.0
 10
72.239001464843739
 20
104.03809407552082
 30
0.0
 10
72.239690483940961
 20
104.14420301649305
 30
0.0
 10
72.238312445746516
 20
104.34884168836804
 30
0.0
 10
72.0731201171875
 20
104.51420627170138
 30
0.0
 10
71.868653700086796
 20
104.51592881944444
 30
0.0
 10
71.663842773437494
 20
104.51455078124999
 30
0.0
 10
71.497961425781241
 20
104.34918619791665
 30
0.0
 10
71.496238878038184
 20
104.14420301649305
 30
0.0
 10
71.591840277777777
 20
103.89787868923611
 30
0.0
 10
71.867792426215274
 20
103.77385525173611
 30
0.0
 10
72.115494791666663
 20
103.86618381076389
 30
0.0
  0
SPLINE
  5
103
100
AcDbEntity
  8
LAYER_1
 62
     7
100
AcDbSpline
210
0.0
220
0.0
230
1.0
 70
     8
 71
     3
 72
    17
 73
    13
 74
     0
 42
0.00000001
 43
0.00000001
 40
0.0
 40
0.0
 40
0.0
 40
0.0
 40
1.0
 40
1.0
 40
1.0
 40
2.0
 40
2.0
 40
2.0
 40
3.0
 40
3.0
 40
3.0
 40
4.0
 40
4.0
 40
4.0
 40
4.0
 10
63.330845811631939
 20
105.04268391927083
 30
0.0
 10
63.409738498263884
 20
105.11365288628471
 30
0.0
 10
63.455386013454856
 20
105.21459418402777
 30
0.0
 10
63.456247287326384
 20
105.32104763454861
 30
0.0
 10
63.454696994357633
 20
105.52568630642361
 30
0.0
 10
63.28881564670138
 20
105.69139539930555
 30
0.0
 10
63.083832465277773
 20
105.69277343749999
 30
0.0
 10
62.879021538628464
 20
105.69139539930555
 30
0.0
 10
62.713140190972219
 20
105.52568630642361
 30
0.0
 10
62.711417643229161
 20
105.32104763454861
 30
0.0
 10
62.807191297743053
 20
105.07437879774305
 30
0.0
 10
63.082971191406244
 20
104.95035536024305
 30
0.0
 10
63.330845811631939
 20
105.04268391927083
 30
0.0
  0
SPLINE
  5
102
100
AcDbEntity
  8
LAYER_1
 62
     7
100
AcDbSpline
210
0.0
220
0.0
230
1.0
 70
     8
 71
     3
 72
    17
 73
    13
 74
     0
 42
0.00000001
 43
0.00000001
 40
0.0
 40
0.0
 40
0.0
 40
0.0
 40
1.0
 40
1.0
 40
1.0
 40
2.0
 40
2.0
 40
2.0
 40
3.0
 40
3.0
 40
3.0
 40
4.0
 40
4.0
 40
4.0
 40
4.0
 10
74.348433430989573
 20
109.35112033420138
 30
0.0
 10
74.427326117621519
 20
109.42208930121527
 30
0.0
 10
74.472801378038184
 20
109.52303059895833
 30
0.0
 10
74.474007161458331
 20
109.62913953993055
 30
0.0
 10
74.472801378038184
 20
109.83377821180555
 30
0.0
 10
74.307436794704856
 20
109.99914279513888
 30
0.0
 10
74.102970377604166
 20
110.00086534288194
 30
0.0
 10
73.897987196180551
 20
109.99948730468749
 30
0.0
 10
73.732105848524299
 20
109.83412272135416
 30
0.0
 10
73.730555555555554
 20
109.62913953993055
 30
0.0
 10
73.825812445746521
 20
109.38315972222222
 30
0.0
 10
74.101075575086796
 20
109.25913628472222
 30
0.0
 10
74.348433430989573
 20
109.35112033420138
 30
0.0
  0
POLYLINE
  5
FD
100
AcDbEntity
  8
LAYER_1
 62
     7
100
AcDb2dPolyline
 66
     1
 10
0.0
 20
0.0
 30
0.0
  0
VERTEX
  5
FE
100
AcDbEntity
  8
LAYER_1
 62
     7
100
AcDbVertex
100
AcDb2dVertex
 10
136.305892
 20
100.594032
 30
0.0
  0
VERTEX
  5
FF
100
AcDbEntity
  8
LAYER_1
 62
     7
100
AcDbVertex
100
AcDb2dVertex
 10
129.317171
 20
112.831011
 30
0.0
  0
VERTEX
  5
100
100
AcDbEntity
  8
LAYER_1
 62
     7
100
AcDbVertex
100
AcDb2dVertex
 10
127.851972
 20
112.831011
 30
0.0
  0
SEQEND
  5
101
100
AcDbEntity
  8
LAYER_1
 62
     7
  0
POLYLINE
  5
F8
100
AcDbEntity
  8
LAYER_1
 62
     7
100
AcDb2dPolyline
 66
     1
 10
0.0
 20
0.0
 30
0.0
  0
VERTEX
  5
F9
100
AcDbEntity
  8
LAYER_1
 62
     7
100
AcDbVertex
100
AcDb2dVertex
 10
140.907161
 20
104.925206
 30
0.0
  0
VERTEX
  5
FA
100
AcDbEntity
  8
LAYER_1
 62
     7
100
AcDbVertex
100
AcDb2dVertex
 10
133.918441
 20
117.162185
 30
0.0
  0
VERTEX
  5
FB
100
AcDbEntity
  8
LAYER_1
 62
     7
100
AcDbVertex
100
AcDb2dVertex
 10
132.453242
 20
117.162185
 30
0.0
  0
SEQEND
  5
FC
100
AcDbEntity
  8
LAYER_1
 62
     7
  0
LINE
  5
F7
100
AcDbEntity
  8
LAYER_1
 62
     7
100
AcDbLine
 10
61.972961
 20
97.860004
 30
0.0
 11
61.972961
 21
83.99384
 31
0.0
  0
POLYLINE
  5
F2
100
AcDbEntity
  8
LAYER_1
 62
     7
100
AcDb2dPolyline
 66
     1
 10
0.0
 20
0.0
 30
0.0
  0
VERTEX
  5
F3
100
AcDbEntity
  8
LAYER_1
 62
     7
100
AcDbVertex
100
AcDb2dVertex
 10
71.85694
 20
101.196579
 30
0.0
  0
VERTEX
  5
F4
100
AcDbEntity
  8
LAYER_1
 62
     7
100
AcDbVertex
100
AcDb2dVertex
 10
71.85694
 20
83.99384
 30
0.0
  0
VERTEX
  5
F5
100
AcDbEntity
  8
LAYER_1
 62
     7
100
AcDbVertex
100
AcDb2dVertex
 10
61.973134
 20
83.99384
 30
0.0
  0
SEQEND
  5
F6
100
AcDbEntity
  8
LAYER_1
 62
     7
  0
LINE
  5
F1
100
AcDbEntity
  8
LAYER_1
 62
     7
100
AcDbLine
 10
71.865036
 20
108.207004
 30
0.0
 11
71.865036
 21
101.482522
 31
0.0
  0
POLYLINE
  5
EB
100
AcDbEntity
  8
LAYER_1
 62
     7
100
AcDb2dPolyline
 66
     1
 10
0.0
 20
0.0
 30
0.0
 70
     1
  0
VERTEX
  5
EC
100
AcDbEntity
  8
LAYER_1
 62
     7
100
AcDbVertex
100
AcDb2dVertex
 10
72.899082
 20
108.582864
 30
0.0
  0
VERTEX
  5
ED
100
AcDbEntity
  8
LAYER_1
 62
     7
100
AcDbVertex
100
AcDb2dVertex
 10
72.899082
 20
180.158685
 30
0.0
  0
VERTEX
  5
EE
100
AcDbEntity
  8
LAYER_1
 62
     7
100
AcDbVertex
100
AcDb2dVertex
 10
70.855623
 20
180.158685
 30
0.0
  0
VERTEX
  5
EF
100
AcDbEntity
  8
LAYER_1
 62
     7
100
AcDbVertex
100
AcDb2dVertex
 10
70.855623
 20
108.582864
 30
0.0
  0
SEQEND
  5
F0
100
AcDbEntity
  8
LAYER_1
 62
     7
  0
POLYLINE
  5
E1
100
AcDbEntity
  8
LAYER_1
 62
     7
100
AcDb2dPolyline
 66
     1
 10
0.0
 20
0.0
 30
0.0
 70
     1
  0
VERTEX
  5
E2
100
AcDbEntity
  8
LAYER_1
 62
     7
100
AcDbVertex
100
AcDb2dVertex
 10
73.854062
 20
110.860417
 30
0.0
  0
VERTEX
  5
E3
100
AcDbEntity
  8
LAYER_1
 62
     7
100
AcDbVertex
100
AcDb2dVertex
 10
73.852684
 20
107.509717
 30
0.0
  0
VERTEX
  5
E4
100
AcDbEntity
  8
LAYER_1
 62
     7
100
AcDbVertex
100
AcDb2dVertex
 10
69.964722
 20
107.509717
 30
0.0
  0
VERTEX
  5
E5
100
AcDbEntity
  8
LAYER_1
 62
     7
100
AcDbVertex
100
AcDb2dVertex
 10
69.964722
 20
110.860417
 30
0.0
  0
VERTEX
  5
E6
100
AcDbEntity
  8
LAYER_1
 62
     7
100
AcDbVertex
100
AcDb2dVertex
 10
70.410862
 20
110.860417
 30
0.0
  0
VERTEX
  5
E7
100
AcDbEntity
  8
LAYER_1
 62
     7
100
AcDbVertex
100
AcDb2dVertex
 10
70.410862
 20
107.955512
 30
0.0
  0
VERTEX
  5
E8
100
AcDbEntity
  8
LAYER_1
 62
     7
100
AcDbVertex
100
AcDb2dVertex
 10
73.407922
 20
107.955512
 30
0.0
  0
VERTEX
  5
E9
100
AcDbEntity
  8
LAYER_1
 62
     7
100
AcDbVertex
100
AcDb2dVertex
 10
73.407922
 20
110.860417
 30
0.0
  0
SEQEND
  5
EA
100
AcDbEntity
  8
LAYER_1
 62
     7
  0
LINE
  5
E0
100
AcDbEntity
  8
LAYER_1
 62
     7
100
AcDbLine
 10
155.502308
 20
106.722168
 30
0.0
 11
166.209665
 21
96.014811
 31
0.0
  0
LINE
  5
DF
100
AcDbEntity
  8
LAYER_1
 62
     7
100
AcDbLine
 10
154.08224
 20
106.777979
 30
0.0
 11
164.841273
 21
96.018256
 31
0.0
  0
LINE
  5
DE
100
AcDbEntity
  8
LAYER_1
 62
     7
100
AcDbLine
 10
152.858542
 20
106.637419
 30
0.0
 11
163.462202
 21
96.034104
 31
0.0
  0
LINE
  5
DD
100
AcDbEntity
  8
LAYER_1
 62
     7
100
AcDbLine
 10
128.218875
 20
106.722168
 30
0.0
 11
138.851128
 21
96.088536
 31
0.0
  0
LINE
  5
DC
100
AcDbEntity
  8
LAYER_1
 62
     7
100
AcDbLine
 10
126.798806
 20
106.777979
 30
0.0
 11
137.484459
 21
96.091981
 31
0.0
  0
LINE
  5
DB
100
AcDbEntity
  8
LAYER_1
 62
     7
100
AcDbLine
 10
125.575109
 20
106.637419
 30
0.0
 11
136.103665
 21
96.108173
 31
0.0
  0
LINE
  5
DA
100
AcDbEntity
  8
LAYER_1
 62
     7
100
AcDbLine
 10
100.935613
 20
106.722168
 30
0.0
 11
111.534966
 21
96.122643
 31
0.0
  0
LINE
  5
D9
100
AcDbEntity
  8
LAYER_1
 62
     7
100
AcDbLine
 10
99.515545
 20
106.777979
 30
0.0
 11
110.166919
 21
96.125743
 31
0.0
  0
LINE
  5
D8
100
AcDbEntity
  8
LAYER_1
 62
     7
100
AcDbLine
 10
98.291847
 20
106.637419
 30
0.0
 11
108.786469
 21
96.141591
 31
0.0
  0
LINE
  5
D7
100
AcDbEntity
  8
LAYER_1
 62
     7
100
AcDbLine
 10
73.650802
 20
106.722168
 30
0.0
 11
84.317162
 21
96.055808
 31
0.0
  0
LINE
  5
D6
100
AcDbEntity
  8
LAYER_1
 62
     7
100
AcDbLine
 10
72.231939
 20
106.777979
 30
0.0
 11
82.95032
 21
96.059597
 31
0.0
  0
LINE
  5
D5
100
AcDbEntity
  8
LAYER_1
 62
     7
100
AcDbLine
 10
182.87187
 20
94.452116
 30
0.0
 11
180.754514
 21
92.335105
 31
0.0
  0
LINE
  5
D4
100
AcDbEntity
  8
LAYER_1
 62
     7
100
AcDbLine
 10
180.703871
 20
95.613802
 30
0.0
 11
182.821227
 21
93.495068
 31
0.0
  0
LINE
  5
D3
100
AcDbEntity
  8
LAYER_1
 62
     7
100
AcDbLine
 10
181.304351
 20
95.613802
 30
0.0
 11
178.026343
 21
92.335105
 31
0.0
  0
LINE
  5
D2
100
AcDbEntity
  8
LAYER_1
 62
     7
100
AcDbLine
 10
177.9757
 20
95.613802
 30
0.0
 11
181.253708
 21
92.335105
 31
0.0
  0
LINE
  5
D1
100
AcDbEntity
  8
LAYER_1
 62
     7
100
AcDbLine
 10
178.575836
 20
95.613802
 30
0.0
 11
175.297827
 21
92.335105
 31
0.0
  0
LINE
  5
D0
100
AcDbEntity
  8
LAYER_1
 62
     7
100
AcDbLine
 10
175.246151
 20
95.613802
 30
0.0
 11
178.525537
 21
92.335105
 31
0.0
  0
LINE
  5
CF
100
AcDbEntity
  8
LAYER_1
 62
     7
100
AcDbLine
 10
175.847664
 20
95.613802
 30
0.0
 11
172.569656
 21
92.335105
 31
0.0
  0
LINE
  5
CE
100
AcDbEntity
  8
LAYER_1
 62
     7
100
AcDbLine
 10
172.519013
 20
95.613802
 30
0.0
 11
175.797021
 21
92.335105
 31
0.0
  0
LINE
  5
CD
100
AcDbEntity
  8
LAYER_1
 62
     7
100
AcDbLine
 10
173.119149
 20
95.613802
 30
0.0
 11
169.84114
 21
92.335105
 31
0.0
  0
LINE
  5
CC
100
AcDbEntity
  8
LAYER_1
 62
     7
100
AcDbLine
 10
169.789464
 20
95.613802
 30
0.0
 11
173.06885
 21
92.335105
 31
0.0
  0
LINE
  5
CB
100
AcDbEntity
  8
LAYER_1
 62
     7
100
AcDbLine
 10
170.390978
 20
95.613802
 30
0.0
 11
167.112625
 21
92.335105
 31
0.0
  0
LINE
  5
CA
100
AcDbEntity
  8
LAYER_1
 62
     7
100
AcDbLine
 10
167.060948
 20
95.613802
 30
0.0
 11
170.340335
 21
92.335105
 31
0.0
  0
LINE
  5
C9
100
AcDbEntity
  8
LAYER_1
 62
     7
100
AcDbLine
 10
167.662462
 20
95.613802
 30
0.0
 11
164.384454
 21
92.335105
 31
0.0
  0
LINE
  5
C8
100
AcDbEntity
  8
LAYER_1
 62
     7
100
AcDbLine
 10
164.332777
 20
95.613802
 30
0.0
 11
167.612164
 21
92.335105
 31
0.0
  0
LINE
  5
C7
100
AcDbEntity
  8
LAYER_1
 62
     7
100
AcDbLine
 10
164.934291
 20
95.613802
 30
0.0
 11
161.655938
 21
92.335105
 31
0.0
  0
LINE
  5
C6
100
AcDbEntity
  8
LAYER_1
 62
     7
100
AcDbLine
 10
161.604262
 20
95.613802
 30
0.0
 11
164.883648
 21
92.335105
 31
0.0
  0
LINE
  5
C5
100
AcDbEntity
  8
LAYER_1
 62
     7
100
AcDbLine
 10
162.205775
 20
95.613802
 30
0.0
 11
158.927767
 21
92.335105
 31
0.0
  0
LINE
  5
C4
100
AcDbEntity
  8
LAYER_1
 62
     7
100
AcDbLine
 10
158.875746
 20
95.613802
 30
0.0
 11
162.155477
 21
92.335105
 31
0.0
  0
LINE
  5
C3
100
AcDbEntity
  8
LAYER_1
 62
     7
100
AcDbLine
 10
159.477604
 20
95.613802
 30
0.0
 11
156.199251
 21
92.335105
 31
0.0
  0
LINE
  5
C2
100
AcDbEntity
  8
LAYER_1
 62
     7
100
AcDbLine
 10
156.147575
 20
95.613802
 30
0.0
 11
159.426961
 21
92.335105
 31
0.0
  0
LINE
  5
C1
100
AcDbEntity
  8
LAYER_1
 62
     7
100
AcDbLine
 10
156.749089
 20
95.613802
 30
0.0
 11
153.47108
 21
92.335105
 31
0.0
  0
LINE
  5
C0
100
AcDbEntity
  8
LAYER_1
 62
     7
100
AcDbLine
 10
153.419059
 20
95.613802
 30
0.0
 11
156.69879
 21
92.335105
 31
0.0
  0
LINE
  5
BF
100
AcDbEntity
  8
LAYER_1
 62
     7
100
AcDbLine
 10
154.020917
 20
95.613802
 30
0.0
 11
150.742909
 21
92.335105
 31
0.0
  0
LINE
  5
BE
100
AcDbEntity
  8
LAYER_1
 62
     7
100
AcDbLine
 10
150.690888
 20
95.613802
 30
0.0
 11
153.970275
 21
92.335105
 31
0.0
  0
LINE
  5
BD
100
AcDbEntity
  8
LAYER_1
 62
     7
100
AcDbLine
 10
151.292402
 20
95.613802
 30
0.0
 11
148.014393
 21
92.335105
 31
0.0
  0
LINE
  5
BC
100
AcDbEntity
  8
LAYER_1
 62
     7
100
AcDbLine
 10
147.964095
 20
95.613802
 30
0.0
 11
151.242103
 21
92.335105
 31
0.0
  0
LINE
  5
BB
100
AcDbEntity
  8
LAYER_1
 62
     7
100
AcDbLine
 10
148.564231
 20
95.613802
 30
0.0
 11
145.286222
 21
92.335105
 31
0.0
  0
LINE
  5
BA
100
AcDbEntity
  8
LAYER_1
 62
     7
100
AcDbLine
 10
145.234201
 20
95.613802
 30
0.0
 11
148.513588
 21
92.335105
 31
0.0
  0
LINE
  5
B9
100
AcDbEntity
  8
LAYER_1
 62
     7
100
AcDbLine
 10
145.835715
 20
95.613802
 30
0.0
 11
142.557707
 21
92.335105
 31
0.0
  0
LINE
  5
B8
100
AcDbEntity
  8
LAYER_1
 62
     7
100
AcDbLine
 10
142.50603
 20
95.613802
 30
0.0
 11
145.785417
 21
92.335105
 31
0.0
  0
LINE
  5
B7
100
AcDbEntity
  8
LAYER_1
 62
     7
100
AcDbLine
 10
142.290367
 20
106.711144
 30
0.0
 11
139.588034
 21
104.009155
 31
0.0
  0
LINE
  5
B6
100
AcDbEntity
  8
LAYER_1
 62
     7
100
AcDbLine
 10
140.147173
 20
106.677382
 30
0.0
 11
142.815744
 21
104.009155
 31
0.0
  0
LINE
  5
B5
100
AcDbEntity
  8
LAYER_1
 62
     7
100
AcDbLine
 10
142.867421
 20
104.559682
 30
0.0
 11
139.588034
 21
101.28064
 31
0.0
  0
LINE
  5
B4
100
AcDbEntity
  8
LAYER_1
 62
     7
100
AcDbLine
 10
139.537391
 20
104.559682
 30
0.0
 11
142.815744
 21
101.28064
 31
0.0
  0
LINE
  5
B3
100
AcDbEntity
  8
LAYER_1
 62
     7
100
AcDbLine
 10
142.867421
 20
101.831166
 30
0.0
 11
139.588034
 21
98.552469
 31
0.0
  0
LINE
  5
B2
100
AcDbEntity
  8
LAYER_1
 62
     7
100
AcDbLine
 10
139.537391
 20
101.831166
 30
0.0
 11
142.815744
 21
98.552469
 31
0.0
  0
LINE
  5
B1
100
AcDbEntity
  8
LAYER_1
 62
     7
100
AcDbLine
 10
142.867421
 20
99.10265
 30
0.0
 11
140.04072
 21
96.276638
 31
0.0
  0
LINE
  5
B0
100
AcDbEntity
  8
LAYER_1
 62
     7
100
AcDbLine
 10
139.537391
 20
99.10265
 30
0.0
 11
142.226289
 21
96.414442
 31
0.0
  0
LINE
  5
AF
100
AcDbEntity
  8
LAYER_1
 62
     7
100
AcDbLine
 10
143.107544
 20
95.613802
 30
0.0
 11
139.829536
 21
92.335105
 31
0.0
  0
LINE
  5
AE
100
AcDbEntity
  8
LAYER_1
 62
     7
100
AcDbLine
 10
139.777515
 20
95.613802
 30
0.0
 11
143.056901
 21
92.335105
 31
0.0
  0
LINE
  5
AD
100
AcDbEntity
  8
LAYER_1
 62
     7
100
AcDbLine
 10
140.379028
 20
95.613802
 30
0.0
 11
137.10102
 21
92.335105
 31
0.0
  0
LINE
  5
AC
100
AcDbEntity
  8
LAYER_1
 62
     7
100
AcDbLine
 10
137.049344
 20
95.613802
 30
0.0
 11
140.32873
 21
92.335105
 31
0.0
  0
LINE
  5
AB
100
AcDbEntity
  8
LAYER_1
 62
     7
100
AcDbLine
 10
137.650857
 20
95.613802
 30
0.0
 11
134.372849
 21
92.335105
 31
0.0
  0
LINE
  5
AA
100
AcDbEntity
  8
LAYER_1
 62
     7
100
AcDbLine
 10
134.320828
 20
95.613802
 30
0.0
 11
137.600214
 21
92.335105
 31
0.0
  0
LINE
  5
A9
100
AcDbEntity
  8
LAYER_1
 62
     7
100
AcDbLine
 10
134.922342
 20
95.613802
 30
0.0
 11
131.644333
 21
92.335105
 31
0.0
  0
LINE
  5
A8
100
AcDbEntity
  8
LAYER_1
 62
     7
100
AcDbLine
 10
131.592657
 20
95.613802
 30
0.0
 11
134.872043
 21
92.335105
 31
0.0
  0
LINE
  5
A7
100
AcDbEntity
  8
LAYER_1
 62
     7
100
AcDbLine
 10
132.19417
 20
95.613802
 30
0.0
 11
128.916162
 21
92.335105
 31
0.0
  0
LINE
  5
A6
100
AcDbEntity
  8
LAYER_1
 62
     7
100
AcDbLine
 10
128.864141
 20
95.613802
 30
0.0
 11
132.143528
 21
92.335105
 31
0.0
  0
LINE
  5
A5
100
AcDbEntity
  8
LAYER_1
 62
     7
100
AcDbLine
 10
129.465655
 20
95.613802
 30
0.0
 11
126.187646
 21
92.335105
 31
0.0
  0
LINE
  5
A4
100
AcDbEntity
  8
LAYER_1
 62
     7
100
AcDbLine
 10
126.13597
 20
95.613802
 30
0.0
 11
129.415356
 21
92.335105
 31
0.0
  0
LINE
  5
A3
100
AcDbEntity
  8
LAYER_1
 62
     7
100
AcDbLine
 10
126.737484
 20
95.613802
 30
0.0
 11
123.459475
 21
92.335105
 31
0.0
  0
LINE
  5
A2
100
AcDbEntity
  8
LAYER_1
 62
     7
100
AcDbLine
 10
123.407454
 20
95.613802
 30
0.0
 11
126.686841
 21
92.335105
 31
0.0
  0
LINE
  5
A1
100
AcDbEntity
  8
LAYER_1
 62
     7
100
AcDbLine
 10
124.008968
 20
95.613802
 30
0.0
 11
120.73096
 21
92.335105
 31
0.0
  0
LINE
  5
A0
100
AcDbEntity
  8
LAYER_1
 62
     7
100
AcDbLine
 10
120.679283
 20
95.613802
 30
0.0
 11
123.95867
 21
92.335105
 31
0.0
  0
LINE
  5
9F
100
AcDbEntity
  8
LAYER_1
 62
     7
100
AcDbLine
 10
121.280797
 20
95.613802
 30
0.0
 11
118.002789
 21
92.335105
 31
0.0
  0
LINE
  5
9E
100
AcDbEntity
  8
LAYER_1
 62
     7
100
AcDbLine
 10
117.950768
 20
95.613802
 30
0.0
 11
121.230154
 21
92.335105
 31
0.0
  0
LINE
  5
9D
100
AcDbEntity
  8
LAYER_1
 62
     7
100
AcDbLine
 10
118.552281
 20
95.613802
 30
0.0
 11
115.274273
 21
92.335105
 31
0.0
  0
LINE
  5
9C
100
AcDbEntity
  8
LAYER_1
 62
     7
100
AcDbLine
 10
115.222597
 20
95.613802
 30
0.0
 11
118.501983
 21
92.335105
 31
0.0
  0
LINE
  5
9B
100
AcDbEntity
  8
LAYER_1
 62
     7
100
AcDbLine
 10
115.82411
 20
95.613802
 30
0.0
 11
112.546102
 21
92.335105
 31
0.0
  0
LINE
  5
9A
100
AcDbEntity
  8
LAYER_1
 62
     7
100
AcDbLine
 10
112.494081
 20
95.613802
 30
0.0
 11
115.773812
 21
92.335105
 31
0.0
  0
LINE
  5
99
100
AcDbEntity
  8
LAYER_1
 62
     7
100
AcDbLine
 10
113.095595
 20
95.613802
 30
0.0
 11
109.817586
 21
92.335105
 31
0.0
  0
LINE
  5
98
100
AcDbEntity
  8
LAYER_1
 62
     7
100
AcDbLine
 10
109.76591
 20
95.613802
 30
0.0
 11
113.045296
 21
92.335105
 31
0.0
  0
LINE
  5
97
100
AcDbEntity
  8
LAYER_1
 62
     7
100
AcDbLine
 10
110.367424
 20
95.613802
 30
0.0
 11
107.089415
 21
92.335105
 31
0.0
  0
LINE
  5
96
100
AcDbEntity
  8
LAYER_1
 62
     7
100
AcDbLine
 10
107.037394
 20
95.613802
 30
0.0
 11
110.317125
 21
92.335105
 31
0.0
  0
LINE
  5
95
100
AcDbEntity
  8
LAYER_1
 62
     7
100
AcDbLine
 10
107.638908
 20
95.613802
 30
0.0
 11
104.361072
 21
92.335105
 31
0.0
  0
LINE
  5
94
100
AcDbEntity
  8
LAYER_1
 62
     7
100
AcDbLine
 10
104.309223
 20
95.613802
 30
0.0
 11
107.587231
 21
92.335105
 31
0.0
  0
LINE
  5
93
100
AcDbEntity
  8
LAYER_1
 62
     7
100
AcDbLine
 10
104.910737
 20
95.613802
 30
0.0
 11
101.632556
 21
92.335105
 31
0.0
  0
LINE
  5
92
100
AcDbEntity
  8
LAYER_1
 62
     7
100
AcDbLine
 10
101.58088
 20
95.613802
 30
0.0
 11
104.860438
 21
92.335105
 31
0.0
  0
LINE
  5
91
100
AcDbEntity
  8
LAYER_1
 62
     7
100
AcDbLine
 10
102.182393
 20
95.613802
 30
0.0
 11
98.904213
 21
92.335105
 31
0.0
  0
LINE
  5
90
100
AcDbEntity
  8
LAYER_1
 62
     7
100
AcDbLine
 10
98.852536
 20
95.613802
 30
0.0
 11
102.131923
 21
92.335105
 31
0.0
  0
LINE
  5
8F
100
AcDbEntity
  8
LAYER_1
 62
     7
100
AcDbLine
 10
99.45405
 20
95.613802
 30
0.0
 11
96.175869
 21
92.335105
 31
0.0
  0
LINE
  5
8E
100
AcDbEntity
  8
LAYER_1
 62
     7
100
AcDbLine
 10
96.124193
 20
95.613802
 30
0.0
 11
99.402201
 21
92.335105
 31
0.0
  0
LINE
  5
8D
100
AcDbEntity
  8
LAYER_1
 62
     7
100
AcDbLine
 10
96.725707
 20
95.613802
 30
0.0
 11
93.447526
 21
92.335105
 31
0.0
  0
LINE
  5
8C
100
AcDbEntity
  8
LAYER_1
 62
     7
100
AcDbLine
 10
93.395677
 20
95.613802
 30
0.0
 11
96.673858
 21
92.335105
 31
0.0
  0
LINE
  5
8B
100
AcDbEntity
  8
LAYER_1
 62
     7
100
AcDbLine
 10
93.997363
 20
95.613802
 30
0.0
 11
90.719183
 21
92.335105
 31
0.0
  0
LINE
  5
8A
100
AcDbEntity
  8
LAYER_1
 62
     7
100
AcDbLine
 10
90.667334
 20
95.613802
 30
0.0
 11
93.946893
 21
92.335105
 31
0.0
  0
LINE
  5
89
100
AcDbEntity
  8
LAYER_1
 62
     7
100
AcDbLine
 10
91.26902
 20
95.613802
 30
0.0
 11
87.990839
 21
92.335105
 31
0.0
  0
LINE
  5
88
100
AcDbEntity
  8
LAYER_1
 62
     7
100
AcDbLine
 10
87.938991
 20
95.613802
 30
0.0
 11
91.217171
 21
92.335105
 31
0.0
  0
LINE
  5
87
100
AcDbEntity
  8
LAYER_1
 62
     7
100
AcDbLine
 10
88.540677
 20
95.613802
 30
0.0
 11
85.262496
 21
92.335105
 31
0.0
  0
LINE
  5
86
100
AcDbEntity
  8
LAYER_1
 62
     7
100
AcDbLine
 10
85.210647
 20
95.613802
 30
0.0
 11
88.488828
 21
92.335105
 31
0.0
  0
LINE
  5
85
100
AcDbEntity
  8
LAYER_1
 62
     7
100
AcDbLine
 10
70.664593
 20
93.675936
 30
0.0
 11
69.36872
 21
92.38058
 31
0.0
  0
LINE
  5
84
100
AcDbEntity
  8
LAYER_1
 62
     7
100
AcDbLine
 10
68.617
 20
94.591642
 30
0.0
 11
70.691981
 21
92.516317
 31
0.0
  0
LINE
  5
83
100
AcDbEntity
  8
LAYER_1
 62
     7
100
AcDbLine
 10
62.238062
 20
99.019623
 30
0.0
 11
68.843343
 21
92.412964
 31
0.0
  0
LINE
  5
82
100
AcDbEntity
  8
LAYER_1
 62
     7
100
AcDbLine
 10
69.629169
 20
94.591298
 30
0.0
 11
67.417935
 21
92.38058
 31
0.0
  0
LINE
  5
81
100
AcDbEntity
  8
LAYER_1
 62
     7
100
AcDbLine
 10
67.6162
 20
94.497247
 30
0.0
 11
65.997694
 21
92.948332
 31
0.0
  0
LINE
  5
80
100
AcDbEntity
  8
LAYER_1
 62
     7
100
AcDbLine
 10
66.618328
 20
95.496669
 30
0.0
 11
65.03324
 21
93.912614
 31
0.0
  0
LINE
  5
7F
100
AcDbEntity
  8
LAYER_1
 62
     7
100
AcDbLine
 10
65.653874
 20
96.461296
 30
0.0
 11
64.068613
 21
94.876896
 31
0.0
  0
LINE
  5
7E
100
AcDbEntity
  8
LAYER_1
 62
     7
100
AcDbLine
 10
64.688041
 20
97.425578
 30
0.0
 11
63.104159
 21
95.841523
 31
0.0
  0
LINE
  5
7D
100
AcDbEntity
  8
LAYER_1
 62
     7
100
AcDbLine
 10
64.412606
 20
99.019623
 30
0.0
 11
62.265278
 21
96.866783
 31
0.0
  0
LINE
  5
7C
100
AcDbEntity
  8
LAYER_1
 62
     7
100
AcDbLine
 10
62.238062
 20
100.970237
 30
0.0
 11
64.42363
 21
98.784668
 31
0.0
  0
LINE
  5
7B
100
AcDbEntity
  8
LAYER_1
 62
     7
100
AcDbLine
 10
64.412606
 20
100.970237
 30
0.0
 11
62.227209
 21
98.784668
 31
0.0
  0
LINE
  5
7A
100
AcDbEntity
  8
LAYER_1
 62
     7
100
AcDbLine
 10
62.238062
 20
102.921194
 30
0.0
 11
64.42363
 21
100.734937
 31
0.0
  0
LINE
  5
79
100
AcDbEntity
  8
LAYER_1
 62
     7
100
AcDbLine
 10
64.412606
 20
102.921194
 30
0.0
 11
62.227209
 21
100.734937
 31
0.0
  0
LINE
  5
78
100
AcDbEntity
  8
LAYER_1
 62
     7
100
AcDbLine
 10
62.238062
 20
104.871807
 30
0.0
 11
64.42363
 21
102.685894
 31
0.0
  0
LINE
  5
77
100
AcDbEntity
  8
LAYER_1
 62
     7
100
AcDbLine
 10
64.412606
 20
104.871807
 30
0.0
 11
62.227209
 21
102.685894
 31
0.0
  0
LINE
  5
76
100
AcDbEntity
  8
LAYER_1
 62
     7
100
AcDbLine
 10
62.238062
 20
106.82242
 30
0.0
 11
64.42363
 21
104.636852
 31
0.0
  0
LINE
  5
75
100
AcDbEntity
  8
LAYER_1
 62
     7
100
AcDbLine
 10
64.412606
 20
106.82242
 30
0.0
 11
62.227209
 21
104.636852
 31
0.0
  0
LINE
  5
74
100
AcDbEntity
  8
LAYER_1
 62
     7
100
AcDbLine
 10
72.170616
 20
95.613802
 30
0.0
 11
70.824273
 21
94.267803
 31
0.0
  0
LINE
  5
73
100
AcDbEntity
  8
LAYER_1
 62
     7
100
AcDbLine
 10
70.863719
 20
93.590842
 30
0.0
 11
72.118768
 21
92.335105
 31
0.0
  0
LINE
  5
72
100
AcDbEntity
  8
LAYER_1
 62
     7
100
AcDbLine
 10
74.89896
 20
95.613802
 30
0.0
 11
71.620951
 21
92.335105
 31
0.0
  0
LINE
  5
71
100
AcDbEntity
  8
LAYER_1
 62
     7
100
AcDbLine
 10
71.569103
 20
95.613802
 30
0.0
 11
74.847111
 21
92.335105
 31
0.0
  0
LINE
  5
70
100
AcDbEntity
  8
LAYER_1
 62
     7
100
AcDbLine
 10
77.627303
 20
95.613802
 30
0.0
 11
74.349295
 21
92.335105
 31
0.0
  0
LINE
  5
6F
100
AcDbEntity
  8
LAYER_1
 62
     7
100
AcDbLine
 10
74.297446
 20
95.613802
 30
0.0
 11
77.575454
 21
92.335105
 31
0.0
  0
LINE
  5
6E
100
AcDbEntity
  8
LAYER_1
 62
     7
100
AcDbLine
 10
80.355646
 20
95.613802
 30
0.0
 11
77.077466
 21
92.335105
 31
0.0
  0
LINE
  5
6D
100
AcDbEntity
  8
LAYER_1
 62
     7
100
AcDbLine
 10
77.025789
 20
95.613802
 30
0.0
 11
80.303798
 21
92.335105
 31
0.0
  0
LINE
  5
6C
100
AcDbEntity
  8
LAYER_1
 62
     7
100
AcDbLine
 10
83.08399
 20
95.613802
 30
0.0
 11
79.805809
 21
92.335105
 31
0.0
  0
LINE
  5
6B
100
AcDbEntity
  8
LAYER_1
 62
     7
100
AcDbLine
 10
79.753961
 20
95.613802
 30
0.0
 11
83.032141
 21
92.335105
 31
0.0
  0
LINE
  5
6A
100
AcDbEntity
  8
LAYER_1
 62
     7
100
AcDbLine
 10
85.812333
 20
95.613802
 30
0.0
 11
82.534153
 21
92.335105
 31
0.0
  0
LINE
  5
69
100
AcDbEntity
  8
LAYER_1
 62
     7
100
AcDbLine
 10
82.482304
 20
95.613802
 30
0.0
 11
85.761863
 21
92.335105
 31
0.0
  0
LINE
  5
68
100
AcDbEntity
  8
LAYER_1
 62
     7
100
AcDbLine
 10
71.008413
 20
106.637419
 30
0.0
 11
81.588818
 21
96.056497
 31
0.0
  0
LINE
  5
67
100
AcDbEntity
  8
LAYER_1
 62
     7
100
AcDbLine
 10
60.044569
 20
132.91075
 30
0.0
 11
32.833483
 21
160.120803
 31
0.0
  0
LINE
  5
66
100
AcDbEntity
  8
LAYER_1
 62
     7
100
AcDbLine
 10
59.9736
 20
134.344599
 30
0.0
 11
32.833483
 21
161.485061
 31
0.0
  0
LINE
  5
65
100
AcDbEntity
  8
LAYER_1
 62
     7
100
AcDbLine
 10
60.085394
 20
135.598269
 30
0.0
 11
32.833483
 21
162.849147
 31
0.0
  0
LINE
  5
64
100
AcDbEntity
  8
LAYER_1
 62
     7
100
AcDbLine
 10
60.058177
 20
105.613192
 30
0.0
 11
32.833483
 21
132.83737
 31
0.0
  0
LINE
  5
63
100
AcDbEntity
  8
LAYER_1
 62
     7
100
AcDbLine
 10
60.018559
 20
107.017413
 30
0.0
 11
32.833483
 21
134.201628
 31
0.0
  0
LINE
  5
62
100
AcDbEntity
  8
LAYER_1
 62
     7
100
AcDbLine
 10
60.007707
 20
108.391317
 30
0.0
 11
32.833483
 21
135.565541
 31
0.0
  0
LINE
  5
61
100
AcDbEntity
  8
LAYER_1
 62
     7
100
AcDbLine
 10
46.038534
 20
65.065107
 30
0.0
 11
32.833483
 21
78.270158
 31
0.0
  0
LINE
  5
60
100
AcDbEntity
  8
LAYER_1
 62
     7
100
AcDbLine
 10
47.442238
 20
65.025488
 30
0.0
 11
32.833483
 21
79.634416
 31
0.0
  0
LINE
  5
5F
100
AcDbEntity
  8
LAYER_1
 62
     7
100
AcDbLine
 10
48.785997
 20
65.045814
 30
0.0
 11
32.833483
 21
80.998329
 31
0.0
  0
LINE
  5
5E
100
AcDbEntity
  8
LAYER_1
 62
     7
100
AcDbLine
 10
182.847065
 20
64.88355
 30
0.0
 11
157.637234
 21
90.092692
 31
0.0
  0
LINE
  5
5D
100
AcDbEntity
  8
LAYER_1
 62
     7
100
AcDbLine
 10
182.856711
 20
66.237817
 30
0.0
 11
159.011138
 21
90.08339
 31
0.0
  0
LINE
  5
5C
100
AcDbEntity
  8
LAYER_1
 62
     7
100
AcDbLine
 10
182.897708
 20
67.561768
 30
0.0
 11
160.356104
 21
90.103716
 31
0.0
  0
LINE
  5
5B
100
AcDbEntity
  8
LAYER_1
 62
     7
100
AcDbLine
 10
155.354858
 20
64.88355
 30
0.0
 11
130.145028
 21
90.092692
 31
0.0
  0
LINE
  5
5A
100
AcDbEntity
  8
LAYER_1
 62
     7
100
AcDbLine
 10
156.67812
 20
64.923858
 30
0.0
 11
131.518932
 21
90.08339
 31
0.0
  0
LINE
  5
59
100
AcDbEntity
  8
LAYER_1
 62
     7
100
AcDbLine
 10
158.242882
 20
64.723698
 30
0.0
 11
132.862519
 21
90.103716
 31
0.0
  0
LINE
  5
58
100
AcDbEntity
  8
LAYER_1
 62
     7
100
AcDbLine
 10
104.860438
 20
88.094192
 30
0.0
 11
102.861766
 21
90.092692
 31
0.0
  0
LINE
  5
57
100
AcDbEntity
  8
LAYER_1
 62
     7
100
AcDbLine
 10
128.18339
 20
64.770551
 30
0.0
 11
104.860438
 21
88.094192
 31
0.0
  0
LINE
  5
56
100
AcDbEntity
  8
LAYER_1
 62
     7
100
AcDbLine
 10
106.265348
 20
88.053885
 30
0.0
 11
104.235498
 21
90.08339
 31
0.0
  0
LINE
  5
55
100
AcDbEntity
  8
LAYER_1
 62
     7
100
AcDbLine
 10
129.411222
 20
64.907666
 30
0.0
 11
106.265348
 21
88.053885
 31
0.0
  0
LINE
  5
54
100
AcDbEntity
  8
LAYER_1
 62
     7
100
AcDbLine
 10
107.669225
 20
88.014266
 30
0.0
 11
105.579085
 21
90.103716
 31
0.0
  0
LINE
  5
53
100
AcDbEntity
  8
LAYER_1
 62
     7
100
AcDbLine
 10
130.75102
 20
64.932471
 30
0.0
 11
107.669225
 21
88.014266
 31
0.0
  0
LINE
  5
52
100
AcDbEntity
  8
LAYER_1
 62
     7
100
AcDbLine
 10
80.670873
 20
84.999807
 30
0.0
 11
75.578333
 21
90.092692
 31
0.0
  0
LINE
  5
51
100
AcDbEntity
  8
LAYER_1
 62
     7
100
AcDbLine
 10
100.899957
 20
64.770551
 30
0.0
 11
80.670873
 21
84.999807
 31
0.0
  0
LINE
  5
50
100
AcDbEntity
  8
LAYER_1
 62
     7
100
AcDbLine
 10
82.075955
 20
84.959844
 30
0.0
 11
76.952064
 21
90.08339
 31
0.0
  0
LINE
  5
4F
100
AcDbEntity
  8
LAYER_1
 62
     7
100
AcDbLine
 10
102.127789
 20
64.907666
 30
0.0
 11
82.075955
 21
84.959844
 31
0.0
  0
LINE
  5
4E
100
AcDbEntity
  8
LAYER_1
 62
     7
100
AcDbLine
 10
83.438662
 20
84.960189
 30
0.0
 11
78.295824
 21
90.103716
 31
0.0
  0
LINE
  5
4D
100
AcDbEntity
  8
LAYER_1
 62
     7
100
AcDbLine
 10
103.467414
 20
64.932471
 30
0.0
 11
83.438662
 21
84.960189
 31
0.0
  0
LINE
  5
4C
100
AcDbEntity
  8
LAYER_1
 62
     7
100
AcDbLine
 10
73.395692
 20
64.991382
 30
0.0
 11
32.833483
 21
105.553936
 31
0.0
  0
LINE
  5
4B
100
AcDbEntity
  8
LAYER_1
 62
     7
100
AcDbLine
 10
74.800774
 20
64.951419
 30
0.0
 11
32.833483
 21
106.917849
 31
0.0
  0
LINE
  5
4A
100
AcDbEntity
  8
LAYER_1
 62
     7
100
AcDbLine
 10
76.18398
 20
64.932471
 30
0.0
 11
32.833483
 21
108.282107
 31
0.0
  0
POLYLINE
  5
40
100
AcDbEntity
  8
LAYER_1
 62
     7
100
AcDb2dPolyline
 66
     1
 10
0.0
 20
0.0
 30
0.0
 70
     1
  0
VERTEX
  5
41
100
AcDbEntity
  8
LAYER_1
 62
     7
100
AcDbVertex
100
AcDb2dVertex
 10
66.675
 20
92.365422
 30
0.0
  0
VERTEX
  5
42
100
AcDbEntity
  8
LAYER_1
 62
     7
100
AcDbVertex
100
AcDb2dVertex
 10
70.682335
 20
92.365422
 30
0.0
  0
VERTEX
  5
43
100
AcDbEntity
  8
LAYER_1
 62
     7
100
AcDbVertex
100
AcDb2dVertex
 10
70.682335
 20
94.544444
 30
0.0
  0
VERTEX
  5
44
100
AcDbEntity
  8
LAYER_1
 62
     7
100
AcDbVertex
100
AcDb2dVertex
 10
67.614994
 20
94.573728
 30
0.0
  0
VERTEX
  5
45
100
AcDbEntity
  8
LAYER_1
 62
     7
100
AcDbVertex
100
AcDb2dVertex
 10
64.438616
 20
97.719444
 30
0.0
  0
VERTEX
  5
46
100
AcDbEntity
  8
LAYER_1
 62
     7
100
AcDbVertex
100
AcDb2dVertex
 10
64.43586
 20
106.774878
 30
0.0
  0
VERTEX
  5
47
100
AcDbEntity
  8
LAYER_1
 62
     7
100
AcDbVertex
100
AcDb2dVertex
 10
62.205333
 20
106.774878
 30
0.0
  0
VERTEX
  5
48
100
AcDbEntity
  8
LAYER_1
 62
     7
100
AcDbVertex
100
AcDb2dVertex
 10
62.214979
 20
96.780311
 30
0.0
  0
SEQEND
  5
49
100
AcDbEntity
  8
LAYER_1
 62
     7
  0
LINE
  5
3F
100
AcDbEntity
  8
LAYER_1
 62
     7
100
AcDbLine
 10
111.547369
 20
100.132389
 30
0.0
 11
66.149278
 21
100.132389
 31
0.0
  0
LINE
  5
3E
100
AcDbEntity
  8
LAYER_1
 62
     7
100
AcDbLine
 10
138.388797
 20
100.132389
 30
0.0
 11
116.601668
 21
100.132389
 31
0.0
  0
LINE
  5
3D
100
AcDbEntity
  8
LAYER_1
 62
     7
100
AcDbLine
 10
182.822605
 20
100.077612
 30
0.0
 11
144.163466
 21
100.077612
 31
0.0
  0
LINE
  5
3C
100
AcDbEntity
  8
LAYER_1
 62
     7
100
AcDbLine
 10
81.760729
 20
106.677382
 30
0.0
 11
64.62534
 21
106.677382
 31
0.0
  0
LINE
  5
3B
100
AcDbEntity
  8
LAYER_1
 62
     7
100
AcDbLine
 10
182.821227
 20
106.677382
 30
0.0
 11
85.771337
 21
106.677382
 31
0.0
  0
SPLINE
  5
3A
100
AcDbEntity
  8
LAYER_1
 62
     7
100
AcDbSpline
210
0.0
220
0.0
230
1.0
 70
     8
 71
     3
 72
    26
 73
    22
 74
     0
 42
0.00000001
 43
0.00000001
 40
0.0
 40
0.0
 40
0.0
 40
0.0
 40
1.0
 40
1.0
 40
1.0
 40
2.0
 40
2.0
 40
2.0
 40
3.0
 40
3.0
 40
3.0
 40
4.0
 40
4.0
 40
4.0
 40
5.0
 40
5.0
 40
5.0
 40
6.0
 40
6.0
 40
6.0
 40
7.0
 40
7.0
 40
7.0
 40
7.0
 10
182.8239827473958
 20
92.11944173177082
 30
0.0
 10
182.8239827473958
 20
92.11944173177082
 30
0.0
 10
66.41455078125
 20
92.11944173177082
 30
0.0
 10
66.41455078125
 20
92.11944173177082
 30
0.0
 10
66.41455078125
 20
92.11944173177082
 30
0.0
 10
61.966587999131939
 20
96.528819444444437
 30
0.0
 10
61.966587999131939
 20
96.528819444444437
 30
0.0
 10
61.966587999131939
 20
96.528819444444437
 30
0.0
 10
61.928519694010411
 20
173.27142198350694
 30
0.0
 10
61.928519694010411
 20
173.27142198350694
 30
0.0
 10
61.63120795355902
 20
173.96319715711803
 30
0.0
 10
60.927719455295133
 20
174.3902167426215
 30
0.0
 10
60.176860894097217
 20
174.33457845052081
 30
0.0
 10
60.176860894097217
 20
174.33457845052081
 30
0.0
 10
60.182373046874993
 20
95.790879991319429
 30
0.0
 10
60.182373046874993
 20
95.790879991319429
 30
0.0
 10
60.182373046874993
 20
95.790879991319429
 30
0.0
 10
65.736728244357636
 20
90.335226779513874
 30
0.0
 10
65.736728244357636
 20
90.335226779513874
 30
0.0
 10
65.736728244357636
 20
90.335226779513874
 30
0.0
 10
182.8239827473958
 20
90.335226779513874
 30
0.0
 10
182.8239827473958
 20
90.335226779513874
 30
0.0
  0
POLYLINE
  5
34
100
AcDbEntity
  8
LAYER_1
 62
     7
100
AcDb2dPolyline
 66
     1
 10
0.0
 20
0.0
 30
0.0
  0
VERTEX
  5
35
100
AcDbEntity
  8
LAYER_1
 62
     7
100
AcDbVertex
100
AcDb2dVertex
 10
35.496197
 20
200.654074
 30
0.0
  0
VERTEX
  5
36
100
AcDbEntity
  8
LAYER_1
 62
     7
100
AcDbVertex
100
AcDb2dVertex
 10
35.488101
 20
187.775102
 30
0.0
  0
VERTEX
  5
37
100
AcDbEntity
  8
LAYER_1
 62
     7
100
AcDbVertex
100
AcDb2dVertex
 10
35.496197
 20
164.24286
 30
0.0
  0
VERTEX
  5
38
100
AcDbEntity
  8
LAYER_1
 62
     7
100
AcDbVertex
100
AcDb2dVertex
 10
35.496197
 20
64.974501
 30
0.0
  0
SEQEND
  5
39
100
AcDbEntity
  8
LAYER_1
 62
     7
  0
MTEXT
  5
32
100
AcDbEntity
  8
0
 62
     7
100
AcDbMText
 10
4.938889
 20
68.999261
 30
0.0
 40
2.531312
 41
0.0
 71
     1
 72
     2
  1
\W0.50;\fMS Gothic|b0|i0|c128;(数字)は、参考寸法。
  7
KANJISTD
210
0.0
220
0.0
230
1.0
 11
1.000001
 21
0.0
 31
0.0
 73
     1
 44
1.0
  0
MTEXT
  5
30
100
AcDbEntity
  8
レイヤー_1
 62
     7
100
AcDbMText
 10
115.482701
 20
237.223384
 30
0.0
 40
4.174905
 41
0.0
 71
     1
 72
     2
  1
\W0.50;\fMS Gothic|b0|i0|c128;【断熱防水】
  7
KANJISTD
210
0.0
220
0.0
230
1.0
 11
1.000001
 21
0.0
 31
0.0
 73
     1
 44
1.0
  0
POLYLINE
  5
2A
100
AcDbEntity
  8
レイヤー_1
 62
     7
100
AcDb2dPolyline
 66
     1
 10
0.0
 20
0.0
 30
0.0
 70
     1
  0
VERTEX
  5
2B
100
AcDbEntity
  8
レイヤー_1
 62
     7
100
AcDbVertex
100
AcDb2dVertex
 10
114.555282
 20
236.47101
 30
0.0
  0
VERTEX
  5
2C
100
AcDbEntity
  8
レイヤー_1
 62
     7
100
AcDbVertex
100
AcDb2dVertex
 10
114.555282
 20
247.133408
 30
0.0
  0
VERTEX
  5
2D
100
AcDbEntity
  8
レイヤー_1
 62
     7
100
AcDbVertex
100
AcDb2dVertex
 10
5.022432
 20
247.133408
 30
0.0
  0
VERTEX
  5
2E
100
AcDbEntity
  8
レイヤー_1
 62
     7
100
AcDbVertex
100
AcDb2dVertex
 10
5.022432
 20
236.47101
 30
0.0
  0
SEQEND
  5
2F
100
AcDbEntity
  8
レイヤー_1
 62
     7
  0
MTEXT
  5
29
100
AcDbEntity
  8
レイヤー_1
 62
     7
100
AcDbMText
 10
9.341549
 20
244.803108
 30
0.0
 40
5.313505
 41
0.0
 71
     1
 72
     2
  1
\W0.50;\fMS Gothic|b0|i0|c128;■乾式保護工法標準納まり詳細図
  7
KANJISTD
210
0.0
220
0.0
230
1.0
 11
1.000001
 21
0.0
 31
0.0
 73
     1
 44
1.0
  0
ENDSEC
  0
SECTION
  2
OBJECTS
  0
DICTIONARY
  5
19
100
AcDbDictionary
280
     0
281
     1
  3
ACAD_GROUP
350
1A
  3
ACAD_MLINESTYLE
350
1B
  3
ACAD_LAYOUT
350
1E
  3
ACAD_PLOTSETTINGS
350
22
  3
ACAD_PLOTSTYLENAME
350
1F
  3
ACAD_WIPEOUT_VARS
350
23
  0
DICTIONARY
  5
1A
102
{ACAD_REACTORS
330
19
102
}
100
AcDbDictionary
280
     0
281
     1
  0
DICTIONARY
  5
1B
102
{ACAD_REACTORS
330
19
102
}
100
AcDbDictionary
280
     0
281
     1
  3
Standard
350
1C
  0
MLINESTYLE
  5
1C
102
{ACAD_REACTORS
330
1B
102
}
100
AcDbMlineStyle
  2
Standard
 70
     0
  3

 62
     0
 51
90.0
 52
90.0
 71
     2
 49
0.5
 62
   256
  6
BYLAYER
 49
-0.5
 62
   256
  6
BYLAYER
  0
ACDBDICTIONARYWDFLT
  5
1F
102
{ACAD_REACTORS
330
19
102
}
100
AcDbDictionary
281
     1
  3
Normal
350
1D
100
AcDbDictionaryWithDefault
340
1D
  0
ACDBPLACEHOLDER
  5
1D
102
{ACAD_REACTORS
330
1F
102
}
  0
LAYOUT
  5
20
102
{ACAD_REACTORS
330
1E
102
}
100
AcDbPlotSettings
  1

  2

  4

  6

 40
0.0
 41
0.0
 42
0.0
 43
0.0
 44
0.0
 45
0.0
 46
0.0
 47
0.0
 48
0.0
 49
0.0
140
0.0
141
0.0
142
1.0
143
1.0
 70
  1024
 72
     0
 73
     0
 74
     0
  7

 75
     0
147
1.0
148
0.0
149
0.0
100
AcDbLayout
  1
Model
 70
     0
 71
     0
 10
0.0
 20
0.0
 11
0.0
 21
0.0
 12
0.0
 22
0.0
 32
0.0
 14
0.0
 24
0.0
 34
0.0
 15
0.0
 25
0.0
 35
0.0
146
0.0
 13
0.0
 23
0.0
 33
0.0
 16
0.0
 26
0.0
 36
0.0
 17
0.0
 27
0.0
 37
0.0
 76
     0
330
A
331
0
345
0
346
0
  0
LAYOUT
  5
21
102
{ACAD_REACTORS
330
1E
102
}
100
AcDbPlotSettings
  1

  2

  4

  6

 40
0.0
 41
0.0
 42
0.0
 43
0.0
 44
0.0
 45
0.0
 46
0.0
 47
0.0
 48
0.0
 49
0.0
140
0.0
141
0.0
142
1.0
143
1.0
 70
     0
 72
     0
 73
     0
 74
     0
  7

 75
     0
147
1.0
148
0.0
149
0.0
100
AcDbLayout
  1
Layout1
 70
     0
 71
     0
 10
0.0
 20
0.0
 11
0.0
 21
0.0
 12
0.0
 22
0.0
 32
0.0
 14
0.0
 24
0.0
 34
0.0
 15
0.0
 25
0.0
 35
0.0
146
0.0
 13
0.0
 23
0.0
 33
0.0
 16
0.0
 26
0.0
 36
0.0
 17
0.0
 27
0.0
 37
0.0
 76
     0
330
B
331
0
345
0
346
0
  0
DICTIONARY
  5
1E
102
{ACAD_REACTORS
330
19
102
}
100
AcDbDictionary
280
     0
281
     1
  3
Layout1
350
21
  3
Model
350
20
  0
DICTIONARY
  5
22
102
{ACAD_REACTORS
330
19
102
}
100
AcDbDictionary
280
     0
281
     1
  0
WIPEOUTVARIABLES
  5
23
100
AcDbWipeoutVariables
 70
     1
  0
ENDSEC
  0
EOF
