  0
SECTION
  2
HEADER
  9
$ACADVER
  1
AC1015
  9
$ACADMAINTVER
 70
     6
  9
$DWGCODEPAGE
  3
ANSI_932
  9
$INSBASE
 10
0.0
 20
0.0
 30
0.0
  9
$EXTMIN
 10
4.938889
 20
67.210023
 30
1.000000E+20
  9
$EXTMAX
 10
203.905556
 20
242.853221
 30
-1.000000E+20
  9
$LIMMIN
 10
4.938889
 20
67.210023
  9
$LIMMAX
 10
203.905556
 20
242.853221
  9
$ORTHOMODE
 70
     0
  9
$REGENMODE
 70
     1
  9
$FILLMODE
 70
     1
  9
$QTEXTMODE
 70
     0
  9
$MIRRTEXT
 70
     1
  9
$LTSCALE
 40
1.0
  9
$ATTMODE
 70
     1
  9
$TEXTSIZE
 40
0.2
  9
$TRACEWID
 40
0.05
  9
$TEXTSTYLE
  7
Standard
  9
$CLAYER
  8
0
  9
$CELTYPE
  6
Continuous
  9
$CECOLOR
 62
   256
  9
$CELTSCALE
 40
1.0
  9
$DISPSILH
 70
     0
  9
$DIMSCALE
 40
1.0
  9
$DIMASZ
 40
0.18
  9
$DIMEXO
 40
0.0625
  9
$DIMDLI
 40
0.38
  9
$DIMRND
 40
0.0
  9
$DIMDLE
 40
0.0
  9
$DIMEXE
 40
0.18
  9
$DIMTP
 40
0.0
  9
$DIMTM
 40
0.0
  9
$DIMTXT
 40
0.18
  9
$DIMCEN
 40
0.09
  9
$DIMTSZ
 40
0.0
  9
$DIMTOL
 70
     0
  9
$DIMLIM
 70
     0
  9
$DIMTIH
 70
     1
  9
$DIMTOH
 70
     1
  9
$DIMSE1
 70
     0
  9
$DIMSE2
 70
     0
  9
$DIMTAD
 70
     0
  9
$DIMZIN
 70
     0
  9
$DIMBLK
  1

  9
$DIMASO
 70
     1
  9
$DIMSHO
 70
     1
  9
$DIMPOST
  1

  9
$DIMAPOST
  1

  9
$DIMALT
 70
     0
  9
$DIMALTD
 70
     2
  9
$DIMALTF
 40
25.4
  9
$DIMLFAC
 40
1.0
  9
$DIMTOFL
 70
     0
  9
$DIMTVP
 40
0.0
  9
$DIMTIX
 70
     0
  9
$DIMSOXD
 70
     0
  9
$DIMSAH
 70
     0
  9
$DIMBLK1
  1

  9
$DIMBLK2
  1

  9
$DIMSTYLE
  2
Standard
  9
$DIMCLRD
 70
     0
  9
$DIMCLRE
 70
     0
  9
$DIMCLRT
 70
     0
  9
$DIMTFAC
 40
1.0
  9
$DIMGAP
 40
0.09
  9
$DIMJUST
 70
     0
  9
$DIMSD1
 70
     0
  9
$DIMSD2
 70
     0
  9
$DIMTOLJ
 70
     1
  9
$DIMTZIN
 70
     0
  9
$DIMALTZ
 70
     0
  9
$DIMALTTZ
 70
     0
  9
$DIMUPT
 70
     0
  9
$DIMDEC
 70
     4
  9
$DIMTDEC
 70
     4
  9
$DIMALTU
 70
     2
  9
$DIMALTTD
 70
     2
  9
$DIMTXSTY
  7
Standard
  9
$DIMAUNIT
 70
     0
  9
$DIMADEC
 70
     0
  9
$DIMALTRND
 40
0.0
  9
$DIMAZIN
 70
     0
  9
$DIMDSEP
 70
     0
  9
$DIMATFIT
 70
     3
  9
$DIMFRAC
 70
     0
  9
$DIMLDRBLK
  1

  9
$DIMLUNIT
 70
     2
  9
$DIMLWD
 70
     0
  9
$DIMLWE
 70
     0
  9
$DIMTMOVE
 70
     0
  9
$LUNITS
 70
     2
  9
$LUPREC
 70
     4
  9
$SKETCHINC
 40
0.1
  9
$FILLETRAD
 40
0.0
  9
$AUNITS
 70
     0
  9
$AUPREC
 70
     0
  9
$MENU
  1
acad
  9
$ELEVATION
 40
0.0
  9
$PELEVATION
 40
0.0
  9
$THICKNESS
 40
0.0
  9
$LIMCHECK
 70
     0
  9
$CHAMFERA
 40
0.0
  9
$CHAMFERB
 40
0.0
  9
$CHAMFERC
 40
0.0
  9
$CHAMFERD
 40
0.0
  9
$SKPOLY
 70
     0
  9
$TDCREATE
 40
0.000000000
  9
$TDUCREATE
 40
0.000000000
  9
$TDUPDATE
 40
0.000000000
  9
$TDUUPDATE
 40
0.000000000
  9
$TDINDWG
 40
0.0000000000
  9
$TDUSRTIMER
 40
0.0000000000
  9
$USRTIMER
 70
     1
  9
$ANGBASE
 50
0.0
  9
$ANGDIR
 70
     0
  9
$PDMODE
 70
     0
  9
$PDSIZE
 40
0.0
  9
$PLINEWID
 40
0.0
  9
$SPLFRAME
 70
     0
  9
$SPLINETYPE
 70
     6
  9
$SPLINESEGS
 70
     8
  9
$HANDSEED
  5
203
  9
$SURFTAB1
 70
     6
  9
$SURFTAB2
 70
     6
  9
$SURFTYPE
 70
     6
  9
$SURFU
 70
     6
  9
$SURFV
 70
     6
  9
$UCSBASE
  2

  9
$UCSNAME
  2

  9
$UCSORG
 10
0.0
 20
0.0
 30
0.0
  9
$UCSXDIR
 10
1.0
 20
0.0
 30
0.0
  9
$UCSYDIR
 10
0.0
 20
1.0
 30
0.0
  9
$UCSORTHOREF
  2

  9
$UCSORTHOVIEW
 70
     0
  9
$UCSORGTOP
 10
0.0
 20
0.0
 30
0.0
  9
$UCSORGBOTTOM
 10
0.0
 20
0.0
 30
0.0
  9
$UCSORGLEFT
 10
0.0
 20
0.0
 30
0.0
  9
$UCSORGRIGHT
 10
0.0
 20
0.0
 30
0.0
  9
$UCSORGFRONT
 10
0.0
 20
0.0
 30
0.0
  9
$UCSORGBACK
 10
0.0
 20
0.0
 30
0.0
  9
$PUCSBASE
  2

  9
$PUCSNAME
  2

  9
$PUCSORG
 10
0.0
 20
0.0
 30
0.0
  9
$PUCSXDIR
 10
1.0
 20
0.0
 30
0.0
  9
$PUCSYDIR
 10
0.0
 20
1.0
 30
0.0
  9
$PUCSORTHOREF
  2

  9
$PUCSORTHOVIEW
 70
     0
  9
$PUCSORGTOP
 10
0.0
 20
0.0
 30
0.0
  9
$PUCSORGBOTTOM
 10
0.0
 20
0.0
 30
0.0
  9
$PUCSORGLEFT
 10
0.0
 20
0.0
 30
0.0
  9
$PUCSORGRIGHT
 10
0.0
 20
0.0
 30
0.0
  9
$PUCSORGFRONT
 10
0.0
 20
0.0
 30
0.0
  9
$PUCSORGBACK
 10
0.0
 20
0.0
 30
0.0
  9
$USERI1
 70
     0
  9
$USERI2
 70
     0
  9
$USERI3
 70
     0
  9
$USERI4
 70
     0
  9
$USERI5
 70
     0
  9
$USERR1
 40
0.0
  9
$USERR2
 40
0.0
  9
$USERR3
 40
0.0
  9
$USERR4
 40
0.0
  9
$USERR5
 40
0.0
  9
$WORLDVIEW
 70
     1
  9
$SHADEDGE
 70
     3
  9
$SHADEDIF
 70
    70
  9
$TILEMODE
 70
     1
  9
$MAXACTVP
 70
    16
  9
$PINSBASE
 10
0.0
 20
0.0
 30
0.0
  9
$PLIMCHECK
 70
     0
  9
$PEXTMIN
 10
1.000000E+20
 20
1.000000E+20
 30
1.000000E+20
  9
$PEXTMAX
 10
-1.000000E+20
 20
-1.000000E+20
 30
-1.000000E+20
  9
$PLIMMIN
 10
0.0
 20
0.0
  9
$PLIMMAX
 10
12.0
 20
9.0
  9
$UNITMODE
 70
     0
  9
$VISRETAIN
 70
     0
  9
$PLINEGEN
 70
     1
  9
$PSLTSCALE
 70
     0
  9
$TREEDEPTH
 70
  3020
  9
$CMLSTYLE
  2
Standard
  9
$CMLJUST
 70
     0
  9
$CMLSCALE
 40
1.0
  9
$PROXYGRAPHICS
 70
     0
  9
$MEASUREMENT
 70
     0
  9
$CELWEIGHT
370
     0
  9
$ENDCAPS
280
     0
  9
$JOINSTYLE
280
     0
  9
$LWDISPLAY
290
     0
  9
$INSUNITS
 70
     0
  9
$HYPERLINKBASE
  1

  9
$XEDIT
290
     1
  9
$CEPSNTYPE
380
     0
  9
$PSTYLEMODE
290
     1
  9
$FINGERPRINTGUID
  2

  9
$VERSIONGUID
  2

  9
$EXTNAMES
290
     1
  9
$PSVPSCALE
 40
0.0
  0
ENDSEC
  0
SECTION
  2
CLASSES
  0
CLASS
  1
LWPOLYLINE
  2
AcDbPolyline
  3
"AutoCAD"
 90
        0
280
     0
281
     1
  0
CLASS
  1
IMAGE
  2
AcDbRasterImage
  3
ISM
 90
      127
280
     0
281
     1
  0
CLASS
  1
OLE2FRAME
  2
AcDbOle2Frame
  3
""
 90
        0
280
     0
281
     1
  0
CLASS
  1
HATCH
  2
AcDbHatch
  3
"ACAD_SEDONA"
 90
        0
280
     0
281
     1
  0
CLASS
  1
DICTIONARYVAR
  2
AcDbDictionaryVar
  3
"AutoCAD"
 90
        0
280
     0
281
     0
  0
CLASS
  1
RASTERVARIABLES
  2
AcDbRasterVariables
  3
ISM
 90
        0
280
     0
281
     0
  0
CLASS
  1
IMAGEDEF
  2
AcDbRasterImageDef
  3
ISM
 90
        0
280
     0
281
     0
  0
CLASS
  1
IMAGEDEF_REACTOR
  2
AcDbRasterImageDefReactor
  3
ISM
 90
        1
280
     0
281
     0
  0
CLASS
  1
IDBUFFER
  2
AcDbIdBuffer
  3
"Acad"
 90
        0
280
     0
281
     0
  0
CLASS
  1
SPATIAL_FILTER
  2
AcDbSpatialFilter
  3
"Acad"
 90
        0
280
     0
281
     0
  0
CLASS
  1
XRECORD
  2
AcDbXrecord
  3
"<Built In>"
 90
        0
280
     0
281
     0
  0
CLASS
  1
SORTENTSTABLE
  2
AcDbSortentsTable
  3
"AutoCAD"
 90
        0
280
     0
281
     0
  0
CLASS
  1
LAYER_INDEX
  2
AcDbLayerIndex
  3
"Acad"
 90
        0
280
     0
281
     0
  0
CLASS
  1
SPATIAL_INDEX
  2
AcDbSpatialIndex
  3
"Acad"
 90
        0
280
     0
281
     0
  0
CLASS
  1
OBJECT_PTR
  2
CAseDLPNTableRecord
  3
"ASE-LPNTableRecord"
 90
        1
280
     0
281
     0
  0
CLASS
  1
LAYOUT
  2
AcDbLayout
  3
"AutoCAD 2000"
 90
        1
280
     0
281
     0
  0
CLASS
  1
PLOTSETTINGS
  2
AcDbPlotSettings
  3
"AutoCAD 2000"
 90
        1
280
     0
281
     0
  0
CLASS
  1
ACDBDICTIONARYWDFLT
  2
AcDbDictionaryWithDefault
  3
"AutoCAD 2000"
 90
        1
280
     0
281
     0
  0
CLASS
  1
ACDBPLACEHOLDER
  2
AcDbPlaceHolder
  3
"AutoCAD 2000"
 90
        1
280
     0
281
     0
  0
CLASS
  1
VBA_PROJECT
  2
AcDbVbaProject
  3
"acadvba"
 90
        1
280
     0
281
     0
  0
CLASS
  1
WIPEOUT
  2
AcDbWipeout
  3
WipeOut|AutoCAD Express Tool|expresstools@autodesk.com
 90
      127
280
     0
281
     1
  0
CLASS
  1
WIPEOUTVARIABLES
  2
AcDbWipeoutVariables
  3
WipeOut|AutoCAD Express Tool|expresstools@autodesk.com
 90
        0
280
     0
281
     0
  0
CLASS
  1
RTEXT
  2
RText
  3
RText|AutoCAD Express Tool|expresstools@autodesk.com
 90
        0
280
     0
281
     1
  0
CLASS
  1
ARCALIGNEDTEXT
  2
AcDbArcAlignedText
  3
ATEXT|AutoCAD Express Tool|expresstools@autodesk.com
 90
        0
280
     0
281
     1
  0
ENDSEC
  0
SECTION
  2
TABLES
  0
TABLE
  2
VPORT
  5
7
100
AcDbSymbolTable
 70
     1
  0
VPORT
  5
15
100
AcDbSymbolTableRecord
100
AcDbViewportTableRecord
  2
*ACTIVE
 70
     0
 10
0.0
 20
0.0
 11
1.0
 21
1.0
 12
6.591288
 22
4.579184
 13
0.0
 23
0.0
 14
1.0
 24
1.0
 15
0.0
 25
0.0
 16
0.0
 26
0.0
 36
1.0
 17
0.0
 27
0.0
 37
0.0
 40
9.158369
 41
0.688564
 42
50.0
 43
0.0
 44
0.0
 50
0.0
 51
0.0
 71
     0
 72
   100
 73
     1
 74
     1
 75
     0
 76
     0
 77
     0
 78
     0
281
     0
 65
     0
110
0.0
120
0.0
130
0.0
111
1.0
121
0.0
131
0.0
112
0.0
122
1.0
132
0.0
345
0
346
0
 79
     0
146
0.0
  0
ENDTAB
  0
TABLE
  2
LTYPE
  5
4
100
AcDbSymbolTable
 70
     4
  0
LTYPE
  5
11
100
AcDbSymbolTableRecord
100
AcDbLinetypeTableRecord
  2
ByBlock
 70
    64
  3

 72
    65
 73
     0
 40
0.0
  0
LTYPE
  5
12
100
AcDbSymbolTableRecord
100
AcDbLinetypeTableRecord
  2
ByLayer
 70
    64
  3

 72
    65
 73
     0
 40
0.0
  0
LTYPE
  5
13
100
AcDbSymbolTableRecord
100
AcDbLinetypeTableRecord
  2
Continuous
 70
    64
  3
Solid line
 72
    65
 73
     0
 40
0.0
  0
LTYPE
  5
1E7
100
AcDbSymbolTableRecord
100
AcDbLinetypeTableRecord
  2
AI9-LType1
 70
    64
  3
Illustrator Dash Style No.1
 72
    65
 73
     1
 40
1.411111
 49
1.411111
 74
     0
  0
ENDTAB
  0
TABLE
  2
LAYER
  5
2
100
AcDbSymbolTable
 70
     4
  0
LAYER
  5
14
100
AcDbSymbolTableRecord
100
AcDbLayerTableRecord
  2
0
 70
     0
 62
     7
  6
Continuous
290
     1
370
    -3
390
1D
  0
LAYER
  5
28
100
AcDbSymbolTableRecord
100
AcDbLayerTableRecord
  2
レイヤー_1
 70
     0
 62
   160
  6
Continuous
290
     1
370
    -3
390
1F
  0
LAYER
  5
30
100
AcDbSymbolTableRecord
100
AcDbLayerTableRecord
  2
0
 70
     0
 62
     7
  6
Continuous
290
     1
370
    -3
390
1F
  0
LAYER
  5
31
100
AcDbSymbolTableRecord
100
AcDbLayerTableRecord
  2
LAYER_1
 70
     0
 62
     7
  6
Continuous
290
     1
370
    -3
390
1F
  0
ENDTAB
  0
TABLE
  2
STYLE
  5
3
100
AcDbSymbolTable
 70
     5
  0
STYLE
  5
17
100
AcDbSymbolTableRecord
100
AcDbTextStyleTableRecord
  2
Standard
 70
     0
 40
0.0
 41
1.0
 50
0.0
 71
     0
 42
0.0
  3
txt
  4

  0
STYLE
  5
24
100
AcDbSymbolTableRecord
100
AcDbTextStyleTableRecord
  2
STD
 70
     0
 40
0.0
 41
1.0
 50
0.0
 71
     0
 42
0.0
  3
txt
  4

  0
STYLE
  5
25
100
AcDbSymbolTableRecord
100
AcDbTextStyleTableRecord
  2
TATESTD
 70
     4
 40
0.0
 41
1.0
 50
0.0
 71
     0
 42
0.0
  3
txt
  4

  0
STYLE
  5
26
100
AcDbSymbolTableRecord
100
AcDbTextStyleTableRecord
  2
KANJISTD
 70
     0
 40
0.0
 41
1.0
 50
0.0
 71
     0
 42
0.0
  3
txt
  4
extfont
  0
STYLE
  5
27
100
AcDbSymbolTableRecord
100
AcDbTextStyleTableRecord
  2
KANJITATE
 70
     4
 40
0.0
 41
1.0
 50
0.0
 71
     0
 42
0.0
  3
txt
  4
extfont
  0
ENDTAB
  0
TABLE
  2
VIEW
  5
5
100
AcDbSymbolTable
 70
     0
  0
ENDTAB
  0
TABLE
  2
UCS
  5
6
100
AcDbSymbolTable
 70
     0
  0
ENDTAB
  0
TABLE
  2
APPID
  5
8
100
AcDbSymbolTable
 70
     1
  0
APPID
  5
16
100
AcDbSymbolTableRecord
100
AcDbRegAppTableRecord
  2
ACAD
 70
     0
  0
ENDTAB
  0
TABLE
  2
DIMSTYLE
  5
9
100
AcDbSymbolTable
 70
     1
100
AcDbDimStyleTable
 71
     0
  0
DIMSTYLE
105
18
100
AcDbSymbolTableRecord
100
AcDbDimStyleTableRecord
  2
Standard
 70
     0
  3

  4

 40
1.0
 41
0.18
 42
0.0625
 43
0.38
 44
0.18
 45
0.0
 46
0.0
 47
0.0
 48
0.0
 71
     0
 72
     0
 73
     1
 74
     1
 75
     0
 76
     0
 77
     0
 78
     0
 79
     0
140
0.18
141
0.09
142
0.0
143
25.4
144
1.0
145
0.0
146
1.0
147
0.09
148
0.0
170
     0
171
     2
172
     0
173
     0
174
     0
175
     0
176
     0
177
     0
178
     0
179
     0
271
     4
272
     4
273
     2
274
     2
275
     0
276
     0
277
     2
278
    46
279
     0
280
     0
281
     0
282
     0
283
     1
284
     0
285
     0
286
     0
288
     0
340
17
341
0
342
0
343
0
344
0
371
    -2
372
    -2
  0
ENDTAB
  0
TABLE
  2
BLOCK_RECORD
  5
1
100
AcDbSymbolTable
 70
     1
  0
BLOCK_RECORD
  5
A
100
AcDbSymbolTableRecord
100
AcDbBlockTableRecord
  2
*MODEL_SPACE
340
20
  0
BLOCK_RECORD
  5
B
100
AcDbSymbolTableRecord
100
AcDbBlockTableRecord
  2
*PAPER_SPACE
340
21
  0
BLOCK_RECORD
  5
32
100
AcDbSymbolTableRecord
100
AcDbBlockTableRecord
  2
AI9-BLK1
340
0
  0
ENDTAB
  0
ENDSEC
  0
SECTION
  2
BLOCKS
  0
BLOCK
  5
D
100
AcDbEntity
  8
0
100
AcDbBlockBegin
  2
*MODEL_SPACE
 70
     0
 10
0.0
 20
0.0
 30
0.0
  3
*MODEL_SPACE
  1

  0
ENDBLK
  5
E
100
AcDbEntity
  8
0
100
AcDbBlockEnd
  0
BLOCK
  5
F
100
AcDbEntity
 67
     1
  8
0
100
AcDbBlockBegin
  2
*PAPER_SPACE
 70
     0
 10
0.0
 20
0.0
 30
0.0
  3
*PAPER_SPACE
  1

  0
ENDBLK
  5
10
100
AcDbEntity
 67
     1
  8
0
100
AcDbBlockEnd
  0
BLOCK
  5
34
100
AcDbEntity
  8
LAYER_1
 62
     7
100
AcDbBlockBegin
  2
AI9-BLK1
 70
     0
 10
0.0
 20
0.0
 30
0.0
  3
AI9-BLK1
  1

  0
LINE
  5
43
100
AcDbEntity
  8
LAYER_1
 62
     7
100
AcDbLine
 10
0.990034
 20
3.992004
 30
0.0
 11
-0.877207
 21
2.124418
 31
0.0
  0
LINE
  5
42
100
AcDbEntity
  8
LAYER_1
 62
     7
100
AcDbLine
 10
0.913898
 20
0.294039
 30
0.0
 11
-0.967813
 21
-1.587672
 31
0.0
  0
LINE
  5
41
100
AcDbEntity
  8
LAYER_1
 62
     7
100
AcDbLine
 10
0.902701
 20
-3.340537
 30
0.0
 11
0.497213
 21
-3.74568
 31
0.0
  0
LINE
  5
40
100
AcDbEntity
  8
LAYER_1
 62
     7
100
AcDbLine
 10
0.897534
 20
2.088589
 30
0.0
 11
-0.962818
 21
0.228238
 31
0.0
  0
LINE
  5
3F
100
AcDbEntity
  8
LAYER_1
 62
     7
100
AcDbLine
 10
0.879102
 20
-1.552877
 30
0.0
 11
-0.424866
 21
-2.85719
 31
0.0
  0
LINE
  5
3E
100
AcDbEntity
  8
LAYER_1
 62
     7
100
AcDbLine
 10
0.107229
 20
4.121195
 30
0.0
 11
0.908041
 21
3.320211
 31
0.0
  0
LINE
  5
3D
100
AcDbEntity
  8
LAYER_1
 62
     7
100
AcDbLine
 10
-0.973326
 20
-0.428053
 30
0.0
 11
0.878413
 21
-2.280136
 31
0.0
  0
LINE
  5
3C
100
AcDbEntity
  8
LAYER_1
 62
     7
100
AcDbLine
 10
-0.981249
 20
1.502234
 30
0.0
 11
0.899256
 21
-0.377755
 31
0.0
  0
LINE
  5
3B
100
AcDbEntity
  8
LAYER_1
 62
     7
100
AcDbLine
 10
-0.971603
 20
3.275769
 30
0.0
 11
0.908558
 21
1.395436
 31
0.0
  0
POLYLINE
  5
36
100
AcDbEntity
  8
LAYER_1
 62
     7
100
AcDb2dPolyline
 66
     1
 10
0.0
 20
0.0
 30
0.0
  0
VERTEX
  5
37
100
AcDbEntity
  8
LAYER_1
 62
     7
100
AcDbVertex
100
AcDb2dVertex
 10
0.91028
 20
-4.121195
 30
0.0
  0
VERTEX
  5
38
100
AcDbEntity
  8
LAYER_1
 62
     7
100
AcDbVertex
100
AcDb2dVertex
 10
0.90873
 20
4.097769
 30
0.0
  0
VERTEX
  5
39
100
AcDbEntity
  8
LAYER_1
 62
     7
100
AcDbVertex
100
AcDb2dVertex
 10
-0.918376
 20
4.097769
 30
0.0
  0
SEQEND
  5
3A
100
AcDbEntity
  8
LAYER_1
 62
     7
  0
LINE
  5
35
100
AcDbEntity
  8
LAYER_1
 62
     7
100
AcDbLine
 10
0.903562
 20
3.905532
 30
0.0
 11
-0.990034
 21
2.011764
 31
0.0
  0
ENDBLK
  5
44
100
AcDbEntity
  8
LAYER_1
100
AcDbBlockEnd
  0
ENDSEC
  0
SECTION
  2
ENTITIES
  0
POLYLINE
  5
1FD
100
AcDbEntity
  8
LAYER_1
 62
     7
100
AcDb2dPolyline
 66
     1
 10
0.0
 20
0.0
 30
0.0
  0
VERTEX
  5
1FE
100
AcDbEntity
  8
LAYER_1
 62
     7
100
AcDbVertex
100
AcDb2dVertex
 10
67.389513
 20
184.010818
 30
0.0
  0
VERTEX
  5
1FF
100
AcDbEntity
  8
LAYER_1
 62
     7
100
AcDbVertex
100
AcDb2dVertex
 10
26.954255
 20
184.010818
 30
0.0
  0
VERTEX
  5
200
100
AcDbEntity
  8
LAYER_1
 62
     7
100
AcDbVertex
100
AcDb2dVertex
 10
26.954255
 20
92.068454
 30
0.0
  0
VERTEX
  5
201
100
AcDbEntity
  8
LAYER_1
 62
     7
100
AcDbVertex
100
AcDb2dVertex
 10
66.694982
 20
92.068454
 30
0.0
  0
SEQEND
  5
202
100
AcDbEntity
  8
LAYER_1
 62
     7
  0
POLYLINE
  5
1F8
100
AcDbEntity
  8
LAYER_1
 62
     7
100
AcDb2dPolyline
 66
     1
 10
0.0
 20
0.0
 30
0.0
  0
VERTEX
  5
1F9
100
AcDbEntity
  8
LAYER_1
 62
     7
100
AcDbVertex
100
AcDb2dVertex
 10
26.441797
 20
93.977382
 30
0.0
  0
VERTEX
  5
1FA
100
AcDbEntity
  8
LAYER_1
 62
     7
100
AcDbVertex
100
AcDb2dVertex
 10
26.954255
 20
92.068454
 30
0.0
  0
VERTEX
  5
1FB
100
AcDbEntity
  8
LAYER_1
 62
     7
100
AcDbVertex
100
AcDb2dVertex
 10
27.465507
 20
93.977382
 30
0.0
  0
SEQEND
  5
1FC
100
AcDbEntity
  8
LAYER_1
 62
     7
  0
POLYLINE
  5
1F3
100
AcDbEntity
  8
LAYER_1
 62
     7
100
AcDb2dPolyline
 66
     1
 10
0.0
 20
0.0
 30
0.0
  0
VERTEX
  5
1F4
100
AcDbEntity
  8
LAYER_1
 62
     7
100
AcDbVertex
100
AcDb2dVertex
 10
27.465507
 20
182.002844
 30
0.0
  0
VERTEX
  5
1F5
100
AcDbEntity
  8
LAYER_1
 62
     7
100
AcDbVertex
100
AcDb2dVertex
 10
26.954255
 20
183.911944
 30
0.0
  0
VERTEX
  5
1F6
100
AcDbEntity
  8
LAYER_1
 62
     7
100
AcDbVertex
100
AcDb2dVertex
 10
26.441797
 20
182.002844
 30
0.0
  0
SEQEND
  5
1F7
100
AcDbEntity
  8
LAYER_1
 62
     7
  0
MTEXT
  5
1F2
100
AcDbEntity
  8
LAYER_1
 62
     7
100
AcDbMText
 10
23.621517
 20
125.105887
 30
0.0
 40
2.608062
 41
0.0
 71
     1
 72
     2
  1
\W0.50;\fMS Gothic|b0|i0|c128;水上400以上
  7
KANJISTD
210
0.0
220
0.0
230
1.0
 11
0.0
 21
1.0
 31
0.0
 73
     1
 44
1.0
  0
MTEXT
  5
1F1
100
AcDbEntity
  8
LAYER_1
 62
     7
100
AcDbMText
 10
179.368896
 20
126.628399
 30
0.0
 40
2.608062
 41
0.0
 71
     1
 72
     2
  1
\W0.50;\fMS Gothic|b0|i0|c128;ポリエチレンフィルム(t=0.15)
  7
KANJISTD
210
0.0
220
0.0
230
1.0
 11
1.000001
 21
0.0
 31
0.0
 73
     1
 44
1.0
  0
MTEXT
  5
1F0
100
AcDbEntity
  8
LAYER_1
 62
     7
100
AcDbMText
 10
18.532374
 20
228.387326
 30
0.0
 40
4.470933
 41
0.0
 71
     1
 72
     2
  1
\W0.50;\fMS Gothic|b0|i0|c128;●水切りタイプ　ホルダー独立方式　
  7
KANJISTD
210
0.0
220
0.0
230
1.0
 11
1.000001
 21
0.0
 31
0.0
 73
     1
 44
1.0
  0
MTEXT
  5
1EF
100
AcDbEntity
  8
LAYER_1
 62
     7
100
AcDbMText
 10
4.938889
 20
70.354831
 30
0.0
 40
2.608062
 41
0.0
 71
     1
 72
     2
  1
\W0.50;\fMS Gothic|b0|i0|c128;(数字)は、参考寸法。
  7
KANJISTD
210
0.0
220
0.0
230
1.0
 11
1.000001
 21
0.0
 31
0.0
 73
     1
 44
1.0
  0
MTEXT
  5
1EE
100
AcDbEntity
  8
LAYER_1
 62
     7
100
AcDbMText
 10
94.406296
 20
195.316196
 30
0.0
 40
2.608062
 41
0.0
 71
     1
 72
     2
  1
\W0.50;\fMS Gothic|b0|i0|c128;上部ホルダー取付部材
  7
KANJISTD
210
0.0
220
0.0
230
1.0
 11
1.000001
 21
0.0
 31
0.0
 73
     1
 44
1.0
  0
SPLINE
  5
1ED
100
AcDbEntity
  8
LAYER_1
 62
     7
100
AcDbSpline
210
0.0
220
0.0
230
1.0
 70
     8
 71
     3
 72
    17
 73
    13
 74
     0
 42
0.00000001
 43
0.00000001
 40
0.0
 40
0.0
 40
0.0
 40
0.0
 40
1.0
 40
1.0
 40
1.0
 40
2.0
 40
2.0
 40
2.0
 40
3.0
 40
3.0
 40
3.0
 40
4.0
 40
4.0
 40
4.0
 40
4.0
 10
79.121440972222217
 20
169.66371799045137
 30
0.0
 10
79.19774983723957
 20
169.73227539062498
 30
0.0
 10
79.241674804687491
 20
169.82977159288194
 30
0.0
 10
79.242708333333326
 20
169.93243543836803
 30
0.0
 10
79.241158040364581
 20
170.13035617404512
 30
0.0
 10
79.08096110026041
 20
170.29020860460068
 30
0.0
 10
78.883040364583323
 20
170.29141438802083
 30
0.0
 10
78.68563639322916
 20
170.28986409505208
 30
0.0
 10
78.525956217447913
 20
170.12983940972219
 30
0.0
 10
78.524750434027766
 20
169.93243543836803
 30
0.0
 10
78.616734483506931
 20
169.69472384982637
 30
0.0
 10
78.882695855034711
 20
169.57517903645831
 30
0.0
 10
79.121440972222217
 20
169.66371799045137
 30
0.0
  0
POLYLINE
  5
1E8
100
AcDbEntity
  8
LAYER_1
  6
AI9-LType1
 62
     7
100
AcDb2dPolyline
 66
     1
 10
0.0
 20
0.0
 30
0.0
  0
VERTEX
  5
1E9
100
AcDbEntity
  8
LAYER_1
  6
AI9-LType1
 62
     7
100
AcDbVertex
100
AcDb2dVertex
 10
78.787094
 20
172.140742
 30
0.0
  0
VERTEX
  5
1EA
100
AcDbEntity
  8
LAYER_1
  6
AI9-LType1
 62
     7
100
AcDbVertex
100
AcDb2dVertex
 10
68.780815
 20
172.140742
 30
0.0
  0
VERTEX
  5
1EB
100
AcDbEntity
  8
LAYER_1
  6
AI9-LType1
 62
     7
100
AcDbVertex
100
AcDb2dVertex
 10
68.780815
 20
166.814969
 30
0.0
  0
SEQEND
  5
1EC
100
AcDbEntity
  8
LAYER_1
  6
AI9-LType1
 62
     7
  0
POLYLINE
  5
1E1
100
AcDbEntity
  8
LAYER_1
 62
     7
100
AcDb2dPolyline
 66
     1
 10
0.0
 20
0.0
 30
0.0
  0
VERTEX
  5
1E2
100
AcDbEntity
  8
LAYER_1
 62
     7
100
AcDbVertex
100
AcDb2dVertex
 10
75.453448
 20
166.950705
 30
0.0
  0
VERTEX
  5
1E3
100
AcDbEntity
  8
LAYER_1
 62
     7
100
AcDbVertex
100
AcDb2dVertex
 10
75.453448
 20
171.595555
 30
0.0
  0
VERTEX
  5
1E4
100
AcDbEntity
  8
LAYER_1
 62
     7
100
AcDbVertex
100
AcDb2dVertex
 10
78.483926
 20
171.595555
 30
0.0
  0
VERTEX
  5
1E5
100
AcDbEntity
  8
LAYER_1
 62
     7
100
AcDbVertex
100
AcDb2dVertex
 10
78.483926
 20
166.950705
 30
0.0
  0
SEQEND
  5
1E6
100
AcDbEntity
  8
LAYER_1
 62
     7
  0
POLYLINE
  5
1DA
100
AcDbEntity
  8
LAYER_1
 62
     7
100
AcDb2dPolyline
 66
     1
 10
0.0
 20
0.0
 30
0.0
  0
VERTEX
  5
1DB
100
AcDbEntity
  8
LAYER_1
 62
     7
100
AcDbVertex
100
AcDb2dVertex
 10
70.437044
 20
181.619405
 30
0.0
  0
VERTEX
  5
1DC
100
AcDbEntity
  8
LAYER_1
 62
     7
100
AcDbVertex
100
AcDb2dVertex
 10
68.520021
 20
181.619405
 30
0.0
  0
VERTEX
  5
1DD
100
AcDbEntity
  8
LAYER_1
 62
     7
100
AcDbVertex
100
AcDb2dVertex
 10
68.520021
 20
177.446705
 30
0.0
  0
VERTEX
  5
1DE
100
AcDbEntity
  8
LAYER_1
 62
     7
100
AcDbVertex
100
AcDb2dVertex
 10
79.930177
 20
176.149282
 30
0.0
  0
VERTEX
  5
1DF
100
AcDbEntity
  8
LAYER_1
 62
     7
100
AcDbVertex
100
AcDb2dVertex
 10
79.930177
 20
166.470287
 30
0.0
  0
SEQEND
  5
1E0
100
AcDbEntity
  8
LAYER_1
 62
     7
  0
POLYLINE
  5
1D4
100
AcDbEntity
  8
LAYER_1
 62
     7
100
AcDb2dPolyline
 66
     1
 10
0.0
 20
0.0
 30
0.0
 70
     1
  0
VERTEX
  5
1D5
100
AcDbEntity
  8
LAYER_1
 62
     7
100
AcDbVertex
100
AcDb2dVertex
 10
77.960961
 20
106.333906
 30
0.0
  0
VERTEX
  5
1D6
100
AcDbEntity
  8
LAYER_1
 62
     7
100
AcDbVertex
100
AcDb2dVertex
 10
77.960961
 20
168.550091
 30
0.0
  0
VERTEX
  5
1D7
100
AcDbEntity
  8
LAYER_1
 62
     7
100
AcDbVertex
100
AcDb2dVertex
 10
75.987093
 20
168.550091
 30
0.0
  0
VERTEX
  5
1D8
100
AcDbEntity
  8
LAYER_1
 62
     7
100
AcDbVertex
100
AcDb2dVertex
 10
75.987093
 20
106.333906
 30
0.0
  0
SEQEND
  5
1D9
100
AcDbEntity
  8
LAYER_1
 62
     7
  0
SPLINE
  5
1D3
100
AcDbEntity
  8
LAYER_1
 62
     7
100
AcDbSpline
210
0.0
220
0.0
230
1.0
 70
     8
 71
     3
 72
    11
 73
     7
 74
     0
 42
0.00000001
 43
0.00000001
 40
0.0
 40
0.0
 40
0.0
 40
0.0
 40
1.0
 40
1.0
 40
1.0
 40
2.0
 40
2.0
 40
2.0
 40
2.0
 10
70.36056315104166
 20
181.8249050564236
 30
0.0
 10
70.295795355902769
 20
182.24830729166666
 30
0.0
 10
70.282014973958326
 20
182.6777384440104
 30
0.0
 10
70.319738769531241
 20
183.10441351996525
 30
0.0
 10
70.371759711371524
 20
183.43565945095486
 30
0.0
 10
70.463226996527766
 20
183.75932617187499
 30
0.0
 10
70.592418077256937
 20
184.06886800130206
 30
0.0
  0
LINE
  5
1D2
100
AcDbEntity
  8
LAYER_1
 62
     7
100
AcDbLine
 10
69.721498
 20
181.823699
 30
0.0
 11
70.244636
 21
182.346837
 31
0.0
  0
LINE
  5
1D1
100
AcDbEntity
  8
LAYER_1
 62
     7
100
AcDbLine
 10
68.520021
 20
181.941005
 30
0.0
 11
70.462021
 21
183.881627
 31
0.0
  0
LINE
  5
1D0
100
AcDbEntity
  8
LAYER_1
 62
     7
100
AcDbLine
 10
68.099547
 20
182.836902
 30
0.0
 11
69.430387
 21
184.16757
 31
0.0
  0
MTEXT
  5
1CF
100
AcDbEntity
  8
LAYER_1
 62
     7
100
AcDbMText
 10
27.903723
 20
192.164623
 30
0.0
 40
2.608062
 41
0.0
 71
     1
 72
     2
  1
\W0.50;\fMS Gothic|b0|i0|c128;ゴムアスファルト系シール材
  7
KANJISTD
210
0.0
220
0.0
230
1.0
 11
1.000001
 21
0.0
 31
0.0
 73
     1
 44
1.0
  0
MTEXT
  5
1CE
100
AcDbEntity
  8
LAYER_1
 62
     7
100
AcDbMText
 10
41.809679
 20
202.274428
 30
0.0
 40
2.608062
 41
0.0
 71
     1
 72
     2
  1
\W0.50;\fMS Gothic|b0|i0|c128;シーリング材
  7
KANJISTD
210
0.0
220
0.0
230
1.0
 11
1.000001
 21
0.0
 31
0.0
 73
     1
 44
1.0
  0
MTEXT
  5
1CD
100
AcDbEntity
  8
LAYER_1
 62
     7
100
AcDbMText
 10
45.132129
 20
174.433577
 30
0.0
 40
2.608062
 41
0.0
 71
     1
 72
     2
  1
\W0.50;\fMS Gothic|b0|i0|c128;押え金物
  7
KANJISTD
210
0.0
220
0.0
230
1.0
 11
1.000001
 21
0.0
 31
0.0
 73
     1
 44
1.0
  0
LINE
  5
1CC
100
AcDbEntity
  8
LAYER_1
 62
     7
100
AcDbLine
 10
80.315683
 20
166.966897
 30
0.0
 11
94.97422
 21
166.966897
 31
0.0
  0
MTEXT
  5
1CB
100
AcDbEntity
  8
LAYER_1
 62
     7
100
AcDbMText
 10
95.43414
 20
202.20587
 30
0.0
 40
2.608062
 41
0.0
 71
     1
 72
     2
  1
\W0.50;\fMS Gothic|b0|i0|c128;水切り金物
  7
KANJISTD
210
0.0
220
0.0
230
1.0
 11
1.000001
 21
0.0
 31
0.0
 73
     1
 44
1.0
  0
MTEXT
  5
1CA
100
AcDbEntity
  8
LAYER_1
 62
     7
100
AcDbMText
 10
93.574995
 20
188.106472
 30
0.0
 40
2.608062
 41
0.0
 71
     1
 72
     2
  1
\W0.50;\fMS Gothic|b0|i0|c128;上部ホルダー
  7
KANJISTD
210
0.0
220
0.0
230
1.0
 11
1.000001
 21
0.0
 31
0.0
 73
     1
 44
1.0
  0
POLYLINE
  5
1B8
100
AcDbEntity
  8
LAYER_1
 62
     7
100
AcDb2dPolyline
 66
     1
 10
0.0
 20
0.0
 30
0.0
  0
VERTEX
  5
1B9
100
AcDbEntity
  8
LAYER_1
 62
     7
100
AcDbVertex
100
AcDb2dVertex
 10
41.704603
 20
68.203589
 30
0.0
  0
VERTEX
  5
1BA
100
AcDbEntity
  8
LAYER_1
 62
     7
100
AcDbVertex
100
AcDb2dVertex
 10
41.701847
 20
203.853535
 30
0.0
  0
VERTEX
  5
1BB
100
AcDbEntity
  8
LAYER_1
 62
     7
100
AcDbVertex
100
AcDb2dVertex
 10
47.69683
 20
205.927482
 30
0.0
  0
VERTEX
  5
1BC
100
AcDbEntity
  8
LAYER_1
 62
     7
100
AcDbVertex
100
AcDb2dVertex
 10
47.739033
 20
209.320212
 30
0.0
  0
VERTEX
  5
1BD
100
AcDbEntity
  8
LAYER_1
 62
     7
100
AcDbVertex
100
AcDb2dVertex
 10
77.612489
 20
206.480764
 30
0.0
  0
VERTEX
  5
1BE
100
AcDbEntity
  8
LAYER_1
 62
     7
100
AcDbVertex
100
AcDb2dVertex
 10
79.91967
 20
204.12897
 30
0.0
  0
VERTEX
  5
1BF
100
AcDbEntity
  8
LAYER_1
 62
     7
100
AcDbVertex
100
AcDb2dVertex
 10
79.911746
 20
186.253403
 30
0.0
  0
VERTEX
  5
1C0
100
AcDbEntity
  8
LAYER_1
 62
     7
100
AcDbVertex
100
AcDb2dVertex
 10
77.758733
 20
184.076619
 30
0.0
  0
VERTEX
  5
1C1
100
AcDbEntity
  8
LAYER_1
 62
     7
100
AcDbVertex
100
AcDb2dVertex
 10
75.493928
 20
184.068868
 30
0.0
  0
VERTEX
  5
1C2
100
AcDbEntity
  8
LAYER_1
 62
     7
100
AcDbVertex
100
AcDb2dVertex
 10
75.493928
 20
187.395624
 30
0.0
  0
VERTEX
  5
1C3
100
AcDbEntity
  8
LAYER_1
 62
     7
100
AcDbVertex
100
AcDb2dVertex
 10
72.858602
 20
187.395624
 30
0.0
  0
VERTEX
  5
1C4
100
AcDbEntity
  8
LAYER_1
 62
     7
100
AcDbVertex
100
AcDb2dVertex
 10
72.1999
 20
184.121578
 30
0.0
  0
VERTEX
  5
1C5
100
AcDbEntity
  8
LAYER_1
 62
     7
100
AcDbVertex
100
AcDb2dVertex
 10
68.073192
 20
184.113654
 30
0.0
  0
VERTEX
  5
1C6
100
AcDbEntity
  8
LAYER_1
 62
     7
100
AcDbVertex
100
AcDb2dVertex
 10
68.058723
 20
148.044883
 30
0.0
  0
VERTEX
  5
1C7
100
AcDbEntity
  8
LAYER_1
 62
     7
100
AcDbVertex
100
AcDb2dVertex
 10
68.045631
 20
91.783545
 30
0.0
  0
VERTEX
  5
1C8
100
AcDbEntity
  8
LAYER_1
 62
     7
100
AcDbVertex
100
AcDb2dVertex
 10
186.612899
 20
91.783545
 30
0.0
  0
SEQEND
  5
1C9
100
AcDbEntity
  8
LAYER_1
 62
     7
  0
LINE
  5
1B7
100
AcDbEntity
  8
LAYER_1
 62
     7
100
AcDbLine
 10
44.492547
 20
68.203589
 30
0.0
 11
44.492547
 21
204.854852
 31
0.0
  0
LINE
  5
1B6
100
AcDbEntity
  8
LAYER_1
 62
     7
100
AcDbLine
 10
60.808175
 20
170.066966
 30
0.0
 11
68.913795
 21
170.066966
 31
0.0
  0
LINE
  5
1B5
100
AcDbEntity
  8
LAYER_1
 62
     7
100
AcDbLine
 10
60.808175
 20
179.33479
 30
0.0
 11
68.913795
 21
179.33479
 31
0.0
  0
SPLINE
  5
1B4
100
AcDbEntity
  8
LAYER_1
 62
     7
100
AcDbSpline
210
0.0
220
0.0
230
1.0
 70
     8
 71
     3
 72
    17
 73
    13
 74
     0
 42
0.00000001
 43
0.00000001
 40
0.0
 40
0.0
 40
0.0
 40
0.0
 40
1.0
 40
1.0
 40
1.0
 40
2.0
 40
2.0
 40
2.0
 40
3.0
 40
3.0
 40
3.0
 40
4.0
 40
4.0
 40
4.0
 40
4.0
 10
70.421196831597214
 20
158.15692681206596
 30
0.0
 10
70.223276095920127
 20
158.15572102864581
 30
0.0
 10
70.06307915581597
 20
157.99586859809025
 30
0.0
 10
70.061528862847211
 20
157.79794786241317
 30
0.0
 10
70.153512912326377
 20
157.56023627387151
 30
0.0
 10
70.419474283854157
 20
157.44069146050344
 30
0.0
 10
70.658391655815961
 20
157.52940266927081
 30
0.0
 10
70.734528266059016
 20
157.59796006944444
 30
0.0
 10
70.77862548828125
 20
157.69545627170137
 30
0.0
 10
70.779486762152771
 20
157.79794786241317
 30
0.0
 10
70.778280978732639
 20
157.99535183376736
 30
0.0
 10
70.61877305772569
 20
158.15537651909722
 30
0.0
 10
70.421196831597214
 20
158.15692681206596
 30
0.0
  0
MTEXT
  5
1B3
100
AcDbEntity
  8
LAYER_1
 62
     7
100
AcDbMText
 10
71.087823
 20
216.024665
 30
0.0
 40
2.608062
 41
0.0
 71
     1
 72
     2
  1
\W0.50;\fMS Gothic|b0|i0|c128;(90)
  7
STD
210
0.0
220
0.0
230
1.0
 11
1.000001
 21
0.0
 31
0.0
 73
     1
 44
1.0
  0
POLYLINE
  5
1AE
100
AcDbEntity
  8
LAYER_1
 62
     7
100
AcDb2dPolyline
 66
     1
 10
0.0
 20
0.0
 30
0.0
  0
VERTEX
  5
1AF
100
AcDbEntity
  8
LAYER_1
 62
     7
100
AcDbVertex
100
AcDb2dVertex
 10
68.008769
 20
184.830406
 30
0.0
  0
VERTEX
  5
1B0
100
AcDbEntity
  8
LAYER_1
 62
     7
100
AcDbVertex
100
AcDb2dVertex
 10
68.008769
 20
212.748599
 30
0.0
  0
VERTEX
  5
1B1
100
AcDbEntity
  8
LAYER_1
 62
     7
100
AcDbVertex
100
AcDb2dVertex
 10
79.91967
 20
212.748599
 30
0.0
  0
SEQEND
  5
1B2
100
AcDbEntity
  8
LAYER_1
 62
     7
  0
LINE
  5
1AD
100
AcDbEntity
  8
LAYER_1
 62
     7
100
AcDbLine
 10
79.972207
 20
205.209352
 30
0.0
 11
79.972207
 21
212.748599
 31
0.0
  0
POLYLINE
  5
1A8
100
AcDbEntity
  8
LAYER_1
 62
     7
100
AcDb2dPolyline
 66
     1
 10
0.0
 20
0.0
 30
0.0
  0
VERTEX
  5
1A9
100
AcDbEntity
  8
LAYER_1
 62
     7
100
AcDbVertex
100
AcDb2dVertex
 10
69.917868
 20
212.237347
 30
0.0
  0
VERTEX
  5
1AA
100
AcDbEntity
  8
LAYER_1
 62
     7
100
AcDbVertex
100
AcDb2dVertex
 10
68.008769
 20
212.748599
 30
0.0
  0
VERTEX
  5
1AB
100
AcDbEntity
  8
LAYER_1
 62
     7
100
AcDbVertex
100
AcDb2dVertex
 10
69.917868
 20
213.261057
 30
0.0
  0
SEQEND
  5
1AC
100
AcDbEntity
  8
LAYER_1
 62
     7
  0
POLYLINE
  5
1A3
100
AcDbEntity
  8
LAYER_1
 62
     7
100
AcDb2dPolyline
 66
     1
 10
0.0
 20
0.0
 30
0.0
  0
VERTEX
  5
1A4
100
AcDbEntity
  8
LAYER_1
 62
     7
100
AcDbVertex
100
AcDb2dVertex
 10
78.010398
 20
212.237347
 30
0.0
  0
VERTEX
  5
1A5
100
AcDbEntity
  8
LAYER_1
 62
     7
100
AcDbVertex
100
AcDb2dVertex
 10
79.91967
 20
212.748599
 30
0.0
  0
VERTEX
  5
1A6
100
AcDbEntity
  8
LAYER_1
 62
     7
100
AcDbVertex
100
AcDb2dVertex
 10
78.010398
 20
213.261057
 30
0.0
  0
SEQEND
  5
1A7
100
AcDbEntity
  8
LAYER_1
 62
     7
  0
LINE
  5
1A2
100
AcDbEntity
  8
LAYER_1
 62
     7
100
AcDbLine
 10
148.056768
 20
110.692641
 30
0.0
 11
152.545728
 21
110.692641
 31
0.0
  0
POLYLINE
  5
19D
100
AcDbEntity
  8
LAYER_1
 62
     7
100
AcDb2dPolyline
 66
     1
 10
0.0
 20
0.0
 30
0.0
  0
VERTEX
  5
19E
100
AcDbEntity
  8
LAYER_1
 62
     7
100
AcDbVertex
100
AcDb2dVertex
 10
149.964662
 20
110.181044
 30
0.0
  0
VERTEX
  5
19F
100
AcDbEntity
  8
LAYER_1
 62
     7
100
AcDbVertex
100
AcDb2dVertex
 10
148.056768
 20
110.692641
 30
0.0
  0
VERTEX
  5
1A0
100
AcDbEntity
  8
LAYER_1
 62
     7
100
AcDbVertex
100
AcDb2dVertex
 10
149.964662
 20
111.203893
 30
0.0
  0
SEQEND
  5
1A1
100
AcDbEntity
  8
LAYER_1
 62
     7
  0
LINE
  5
19C
100
AcDbEntity
  8
LAYER_1
 62
     7
100
AcDbLine
 10
144.594103
 20
110.789448
 30
0.0
 11
140.103765
 21
110.789448
 31
0.0
  0
LINE
  5
19B
100
AcDbEntity
  8
LAYER_1
 62
     7
100
AcDbLine
 10
176.116037
 20
125.318449
 30
0.0
 11
178.440099
 21
125.318449
 31
0.0
  0
LINE
  5
19A
100
AcDbEntity
  8
LAYER_1
 62
     7
100
AcDbLine
 10
176.116037
 20
120.179744
 30
0.0
 11
178.440099
 21
120.179744
 31
0.0
  0
POLYLINE
  5
195
100
AcDbEntity
  8
LAYER_1
 62
     7
100
AcDb2dPolyline
 66
     1
 10
0.0
 20
0.0
 30
0.0
  0
VERTEX
  5
196
100
AcDbEntity
  8
LAYER_1
 62
     7
100
AcDbVertex
100
AcDb2dVertex
 10
176.116037
 20
92.69994
 30
0.0
  0
VERTEX
  5
197
100
AcDbEntity
  8
LAYER_1
 62
     7
100
AcDbVertex
100
AcDb2dVertex
 10
176.116037
 20
130.742063
 30
0.0
  0
VERTEX
  5
198
100
AcDbEntity
  8
LAYER_1
 62
     7
100
AcDbVertex
100
AcDb2dVertex
 10
178.440099
 20
130.742063
 30
0.0
  0
SEQEND
  5
199
100
AcDbEntity
  8
LAYER_1
 62
     7
  0
SPLINE
  5
194
100
AcDbEntity
  8
LAYER_1
 62
     7
100
AcDbSpline
210
0.0
220
0.0
230
1.0
 70
     8
 71
     3
 72
    17
 73
    13
 74
     0
 42
0.00000001
 43
0.00000001
 40
0.0
 40
0.0
 40
0.0
 40
0.0
 40
1.0
 40
1.0
 40
1.0
 40
2.0
 40
2.0
 40
2.0
 40
3.0
 40
3.0
 40
3.0
 40
4.0
 40
4.0
 40
4.0
 40
4.0
 10
135.32886284722221
 20
97.910647243923606
 30
0.0
 10
135.14765082465277
 20
97.912025282118051
 30
0.0
 10
135.00088975694445
 20
98.058786349826377
 30
0.0
 10
134.99951171875
 20
98.239998372395831
 30
0.0
 10
135.08908420138889
 20
98.458417426215263
 30
0.0
 10
135.33713107638889
 20
98.564526367187497
 30
0.0
 10
135.55692816840278
 20
98.478398980034711
 30
0.0
 10
135.62135145399304
 20
98.415698242187489
 30
0.0
 10
135.65786946614583
 20
98.329915364583329
 30
0.0
 10
135.65821397569442
 20
98.239998372395831
 30
0.0
 10
135.6571804470486
 20
98.058786349826377
 30
0.0
 10
135.51041937934028
 20
97.912025282118051
 30
0.0
 10
135.32886284722221
 20
97.910647243923606
 30
0.0
  0
SPLINE
  5
193
100
AcDbEntity
  8
LAYER_1
 62
     7
100
AcDbSpline
210
0.0
220
0.0
230
1.0
 70
     8
 71
     3
 72
    20
 73
    16
 74
     0
 42
0.00000001
 43
0.00000001
 40
0.0
 40
0.0
 40
0.0
 40
0.0
 40
1.0
 40
1.0
 40
1.0
 40
2.0
 40
2.0
 40
2.0
 40
3.0
 40
3.0
 40
3.0
 40
4.0
 40
4.0
 40
4.0
 40
5.0
 40
5.0
 40
5.0
 40
5.0
 10
145.74855414496525
 20
101.43532443576387
 30
0.0
 10
145.56699761284722
 20
101.43704698350693
 30
0.0
 10
145.42023654513886
 20
101.58380805121527
 30
0.0
 10
145.41885850694442
 20
101.76502007378471
 30
0.0
 10
145.50843098958333
 20
101.98343912760416
 30
0.0
 10
145.75647786458333
 20
102.08954806857638
 30
0.0
 10
145.97627495659722
 20
102.00342068142361
 30
0.0
 10
146.04069824218749
 20
101.94071994357638
 30
0.0
 10
146.07721625434027
 20
101.85493706597221
 30
0.0
 10
146.07790527343749
 20
101.76502007378471
 30
0.0
 10
146.07790527343749
 20
101.67751464843749
 30
0.0
 10
146.04310980902775
 20
101.59379882812499
 30
0.0
 10
145.98144259982638
 20
101.5321316189236
 30
0.0
 10
145.91943088107638
 20
101.4701199001736
 30
0.0
 10
145.83571506076387
 20
101.43566894531249
 30
0.0
 10
145.74855414496525
 20
101.43532443576387
 30
0.0
  0
SPLINE
  5
192
100
AcDbEntity
  8
LAYER_1
 62
     7
100
AcDbSpline
210
0.0
220
0.0
230
1.0
 70
     8
 71
     3
 72
    17
 73
    13
 74
     0
 42
0.00000001
 43
0.00000001
 40
0.0
 40
0.0
 40
0.0
 40
0.0
 40
1.0
 40
1.0
 40
1.0
 40
2.0
 40
2.0
 40
2.0
 40
3.0
 40
3.0
 40
3.0
 40
4.0
 40
4.0
 40
4.0
 40
4.0
 10
176.11603732638886
 20
99.450604926215263
 30
0.0
 10
175.93448079427083
 20
99.451638454861097
 30
0.0
 10
175.78771972656247
 20
99.598399522569437
 30
0.0
 10
175.78668619791665
 20
99.779956054687489
 30
0.0
 10
175.87591417100694
 20
99.998375108506934
 30
0.0
 10
176.12430555555554
 20
100.10448404947915
 30
0.0
 10
176.34375813802083
 20
100.01835666232638
 30
0.0
 10
176.4081814236111
 20
99.95565592447916
 30
0.0
 10
176.44469943576388
 20
99.869528537326374
 30
0.0
 10
176.4453884548611
 20
99.779956054687489
 30
0.0
 10
176.44401041666666
 20
99.598399522569437
 30
0.0
 10
176.29724934895833
 20
99.451638454861097
 30
0.0
 10
176.11603732638886
 20
99.450604926215263
 30
0.0
  0
SPLINE
  5
191
100
AcDbEntity
  8
LAYER_1
 62
     7
100
AcDbSpline
210
0.0
220
0.0
230
1.0
 70
     8
 71
     3
 72
    20
 73
    16
 74
     0
 42
0.00000001
 43
0.00000001
 40
0.0
 40
0.0
 40
0.0
 40
0.0
 40
1.0
 40
1.0
 40
1.0
 40
2.0
 40
2.0
 40
2.0
 40
3.0
 40
3.0
 40
3.0
 40
4.0
 40
4.0
 40
4.0
 40
5.0
 40
5.0
 40
5.0
 40
5.0
 10
176.11603732638886
 20
93.94637586805554
 30
0.0
 10
175.93448079427083
 20
93.947409396701374
 30
0.0
 10
175.78771972656247
 20
94.094170464409714
 30
0.0
 10
175.78668619791665
 20
94.275382486979154
 30
0.0
 10
175.82871636284722
 20
94.381146918402763
 30
0.0
 10
175.91105414496525
 20
94.465551757812491
 30
0.0
 10
176.01578504774304
 20
94.510337999131934
 30
0.0
 10
176.1201714409722
 20
94.555124240451377
 30
0.0
 10
176.23833821614582
 20
94.556502278645823
 30
0.0
 10
176.34375813802083
 20
94.51412760416666
 30
0.0
 10
176.4081814236111
 20
94.451426866319437
 30
0.0
 10
176.44469943576388
 20
94.365299479166652
 30
0.0
 10
176.4453884548611
 20
94.275382486979154
 30
0.0
 10
176.44401041666666
 20
94.094170464409714
 30
0.0
 10
176.29724934895833
 20
93.947409396701374
 30
0.0
 10
176.11603732638886
 20
93.94637586805554
 30
0.0
  0
SPLINE
  5
190
100
AcDbEntity
  8
LAYER_1
 62
     7
100
AcDbSpline
210
0.0
220
0.0
230
1.0
 70
     8
 71
     3
 72
    20
 73
    16
 74
     0
 42
0.00000001
 43
0.00000001
 40
0.0
 40
0.0
 40
0.0
 40
0.0
 40
1.0
 40
1.0
 40
1.0
 40
2.0
 40
2.0
 40
2.0
 40
3.0
 40
3.0
 40
3.0
 40
4.0
 40
4.0
 40
4.0
 40
5.0
 40
5.0
 40
5.0
 40
5.0
 10
176.11603732638886
 20
92.371622721354157
 30
0.0
 10
176.02853190104165
 20
92.371622721354157
 30
0.0
 10
175.94481608072914
 20
92.406418185763883
 30
0.0
 10
175.88314887152777
 20
92.468085394965271
 30
0.0
 10
175.82113715277777
 20
92.530097113715271
 30
0.0
 10
175.78634168836803
 20
92.613812934027763
 30
0.0
 10
175.78668619791665
 20
92.701318359374994
 30
0.0
 10
175.87591417100694
 20
92.91973741319444
 30
0.0
 10
176.12430555555554
 20
93.02584635416666
 30
0.0
 10
176.34375813802083
 20
92.939374457465263
 30
0.0
 10
176.4081814236111
 20
92.87667371961804
 30
0.0
 10
176.44469943576388
 20
92.79089084201388
 30
0.0
 10
176.4453884548611
 20
92.701318359374994
 30
0.0
 10
176.44401041666666
 20
92.519761827256943
 30
0.0
 10
176.29724934895833
 20
92.373000759548603
 30
0.0
 10
176.11603732638886
 20
92.371622721354157
 30
0.0
  0
POLYLINE
  5
18B
100
AcDbEntity
  8
LAYER_1
 62
     7
100
AcDb2dPolyline
 66
     1
 10
0.0
 20
0.0
 30
0.0
  0
VERTEX
  5
18C
100
AcDbEntity
  8
LAYER_1
 62
     7
100
AcDbVertex
100
AcDb2dVertex
 10
79.22066
 20
170.171181
 30
0.0
  0
VERTEX
  5
18D
100
AcDbEntity
  8
LAYER_1
 62
     7
100
AcDbVertex
100
AcDb2dVertex
 10
91.397005
 20
186.728998
 30
0.0
  0
VERTEX
  5
18E
100
AcDbEntity
  8
LAYER_1
 62
     7
100
AcDbVertex
100
AcDb2dVertex
 10
93.643552
 20
186.728998
 30
0.0
  0
SEQEND
  5
18F
100
AcDbEntity
  8
LAYER_1
 62
     7
  0
POLYLINE
  5
186
100
AcDbEntity
  8
LAYER_1
 62
     7
100
AcDb2dPolyline
 66
     1
 10
0.0
 20
0.0
 30
0.0
  0
VERTEX
  5
187
100
AcDbEntity
  8
LAYER_1
 62
     7
100
AcDbVertex
100
AcDb2dVertex
 10
70.537124
 20
157.628449
 30
0.0
  0
VERTEX
  5
188
100
AcDbEntity
  8
LAYER_1
 62
     7
100
AcDbVertex
100
AcDb2dVertex
 10
62.01637
 20
172.9512
 30
0.0
  0
VERTEX
  5
189
100
AcDbEntity
  8
LAYER_1
 62
     7
100
AcDbVertex
100
AcDb2dVertex
 10
53.093056
 20
172.9512
 30
0.0
  0
SEQEND
  5
18A
100
AcDbEntity
  8
LAYER_1
 62
     7
  0
POLYLINE
  5
181
100
AcDbEntity
  8
LAYER_1
 62
     7
100
AcDb2dPolyline
 66
     1
 10
0.0
 20
0.0
 30
0.0
  0
VERTEX
  5
182
100
AcDbEntity
  8
LAYER_1
 62
     7
100
AcDbVertex
100
AcDb2dVertex
 10
69.016631
 20
163.333355
 30
0.0
  0
VERTEX
  5
183
100
AcDbEntity
  8
LAYER_1
 62
     7
100
AcDbVertex
100
AcDb2dVertex
 10
53.445489
 20
190.791111
 30
0.0
  0
VERTEX
  5
184
100
AcDbEntity
  8
LAYER_1
 62
     7
100
AcDbVertex
100
AcDb2dVertex
 10
51.198942
 20
190.791111
 30
0.0
  0
SEQEND
  5
185
100
AcDbEntity
  8
LAYER_1
 62
     7
  0
SPLINE
  5
180
100
AcDbEntity
  8
LAYER_1
 62
     7
100
AcDbSpline
210
0.0
220
0.0
230
1.0
 70
     8
 71
     3
 72
    17
 73
    13
 74
     0
 42
0.00000001
 43
0.00000001
 40
0.0
 40
0.0
 40
0.0
 40
0.0
 40
1.0
 40
1.0
 40
1.0
 40
2.0
 40
2.0
 40
2.0
 40
3.0
 40
3.0
 40
3.0
 40
4.0
 40
4.0
 40
4.0
 40
4.0
 10
69.064001464843741
 20
162.95835639105903
 30
0.0
 10
68.866597493489579
 20
162.95990668402777
 30
0.0
 10
68.706917317708331
 20
163.11975911458333
 30
0.0
 10
68.705711534288184
 20
163.31733534071179
 30
0.0
 10
68.79769558376735
 20
163.55504692925345
 30
0.0
 10
69.06365695529513
 20
163.67459174262152
 30
0.0
 10
69.302574327256934
 20
163.58605278862845
 30
0.0
 10
69.378710937499989
 20
163.51732313368055
 30
0.0
 10
69.422808159722223
 20
163.41999918619791
 30
0.0
 10
69.423669433593744
 20
163.31733534071179
 30
0.0
 10
69.422119140625
 20
163.11941460503471
 30
0.0
 10
69.261922200520829
 20
162.95956217447915
 30
0.0
 10
69.064001464843741
 20
162.95835639105903
 30
0.0
  0
POLYLINE
  5
17B
100
AcDbEntity
  8
LAYER_1
 62
     7
100
AcDb2dPolyline
 66
     1
 10
0.0
 20
0.0
 30
0.0
  0
VERTEX
  5
17C
100
AcDbEntity
  8
LAYER_1
 62
     7
100
AcDbVertex
100
AcDb2dVertex
 10
69.016631
 20
182.855333
 30
0.0
  0
VERTEX
  5
17D
100
AcDbEntity
  8
LAYER_1
 62
     7
100
AcDbVertex
100
AcDb2dVertex
 10
58.568174
 20
201.250076
 30
0.0
  0
VERTEX
  5
17E
100
AcDbEntity
  8
LAYER_1
 62
     7
100
AcDbVertex
100
AcDb2dVertex
 10
53.093056
 20
201.250076
 30
0.0
  0
SEQEND
  5
17F
100
AcDbEntity
  8
LAYER_1
 62
     7
  0
SPLINE
  5
17A
100
AcDbEntity
  8
LAYER_1
 62
     7
100
AcDbSpline
210
0.0
220
0.0
230
1.0
 70
     8
 71
     3
 72
    17
 73
    13
 74
     0
 42
0.00000001
 43
0.00000001
 40
0.0
 40
0.0
 40
0.0
 40
0.0
 40
1.0
 40
1.0
 40
1.0
 40
2.0
 40
2.0
 40
2.0
 40
3.0
 40
3.0
 40
3.0
 40
4.0
 40
4.0
 40
4.0
 40
4.0
 10
69.064001464843741
 20
182.48119574652776
 30
0.0
 10
68.866769748263877
 20
182.48257378472221
 30
0.0
 10
68.70708957248263
 20
182.64208170572914
 30
0.0
 10
68.705711534288184
 20
182.8394856770833
 30
0.0
 10
68.79769558376735
 20
183.07719726562499
 30
0.0
 10
69.06365695529513
 20
183.19691433376735
 30
0.0
 10
69.302574327256934
 20
183.10837537977429
 30
0.0
 10
69.378710937499989
 20
183.03964572482639
 30
0.0
 10
69.422808159722223
 20
182.94214952256942
 30
0.0
 10
69.423669433593744
 20
182.8394856770833
 30
0.0
 10
69.421946885850687
 20
182.64173719618054
 30
0.0
 10
69.261749945746516
 20
182.48222927517361
 30
0.0
 10
69.064001464843741
 20
182.48119574652776
 30
0.0
  0
POLYLINE
  5
175
100
AcDbEntity
  8
LAYER_1
 62
     7
100
AcDb2dPolyline
 66
     1
 10
0.0
 20
0.0
 30
0.0
  0
VERTEX
  5
176
100
AcDbEntity
  8
LAYER_1
 62
     7
100
AcDbVertex
100
AcDb2dVertex
 10
77.368576
 20
172.728819
 30
0.0
  0
VERTEX
  5
177
100
AcDbEntity
  8
LAYER_1
 62
     7
100
AcDbVertex
100
AcDb2dVertex
 10
91.520856
 20
194.021749
 30
0.0
  0
VERTEX
  5
178
100
AcDbEntity
  8
LAYER_1
 62
     7
100
AcDbVertex
100
AcDb2dVertex
 10
93.767231
 20
194.021749
 30
0.0
  0
SEQEND
  5
179
100
AcDbEntity
  8
LAYER_1
 62
     7
  0
SPLINE
  5
174
100
AcDbEntity
  8
LAYER_1
 62
     7
100
AcDbSpline
210
0.0
220
0.0
230
1.0
 70
     8
 71
     3
 72
    17
 73
    13
 74
     0
 42
0.00000001
 43
0.00000001
 40
0.0
 40
0.0
 40
0.0
 40
0.0
 40
1.0
 40
1.0
 40
1.0
 40
2.0
 40
2.0
 40
2.0
 40
3.0
 40
3.0
 40
3.0
 40
4.0
 40
4.0
 40
4.0
 40
4.0
 10
77.385974121093739
 20
172.35588785807289
 30
0.0
 10
77.461766221788181
 20
172.42478976779512
 30
0.0
 10
77.505346679687491
 20
172.52245822482638
 30
0.0
 10
77.505863444010416
 20
172.62477756076387
 30
0.0
 10
77.504657660590269
 20
172.82235378689234
 30
0.0
 10
77.344977484809021
 20
172.9822062174479
 30
0.0
 10
77.147401258680546
 20
172.98392876519097
 30
0.0
 10
76.949480523003459
 20
172.98272298177082
 30
0.0
 10
76.789283582899301
 20
172.82269829644096
 30
0.0
 10
76.787733289930543
 20
172.62477756076387
 30
0.0
 10
76.88006184895832
 20
172.38672146267359
 30
0.0
 10
77.146539984809024
 20
172.26700439453123
 30
0.0
 10
77.385974121093739
 20
172.35588785807289
 30
0.0
  0
POLYLINE
  5
16F
100
AcDbEntity
  8
LAYER_1
 62
     7
100
AcDb2dPolyline
 66
     1
 10
0.0
 20
0.0
 30
0.0
  0
VERTEX
  5
170
100
AcDbEntity
  8
LAYER_1
 62
     7
100
AcDbVertex
100
AcDb2dVertex
 10
77.317072
 20
176.976794
 30
0.0
  0
VERTEX
  5
171
100
AcDbEntity
  8
LAYER_1
 62
     7
100
AcDbVertex
100
AcDb2dVertex
 10
90.947937
 20
201.011331
 30
0.0
  0
VERTEX
  5
172
100
AcDbEntity
  8
LAYER_1
 62
     7
100
AcDbVertex
100
AcDb2dVertex
 10
93.19569
 20
201.011331
 30
0.0
  0
SEQEND
  5
173
100
AcDbEntity
  8
LAYER_1
 62
     7
  0
SPLINE
  5
16E
100
AcDbEntity
  8
LAYER_1
 62
     7
100
AcDbSpline
210
0.0
220
0.0
230
1.0
 70
     8
 71
     3
 72
    17
 73
    13
 74
     0
 42
0.00000001
 43
0.00000001
 40
0.0
 40
0.0
 40
0.0
 40
0.0
 40
1.0
 40
1.0
 40
1.0
 40
2.0
 40
2.0
 40
2.0
 40
3.0
 40
3.0
 40
3.0
 40
4.0
 40
4.0
 40
4.0
 40
4.0
 10
77.399237738715271
 20
176.34220784505206
 30
0.0
 10
77.475374348958326
 20
176.41076524522569
 30
0.0
 10
77.519299316406247
 20
176.50826144748262
 30
0.0
 10
77.520332845052081
 20
176.61092529296874
 30
0.0
 10
77.518954806857636
 20
176.80884602864583
 30
0.0
 10
77.358757866753464
 20
176.96904296874999
 30
0.0
 10
77.160664876302079
 20
176.97059326171873
 30
0.0
 10
76.962916395399304
 20
176.96869845920136
 30
0.0
 10
76.803408474392356
 20
176.80850151909721
 30
0.0
 10
76.802202690972209
 20
176.61092529296874
 30
0.0
 10
76.894358995225687
 20
176.37321370442706
 30
0.0
 10
77.160148111979154
 20
176.25349663628469
 30
0.0
 10
77.399237738715271
 20
176.34220784505206
 30
0.0
  0
POLYLINE
  5
169
100
AcDbEntity
  8
LAYER_1
 62
     7
100
AcDb2dPolyline
 66
     1
 10
0.0
 20
0.0
 30
0.0
  0
VERTEX
  5
16A
100
AcDbEntity
  8
LAYER_1
 62
     7
100
AcDbVertex
100
AcDb2dVertex
 10
57.606475
 20
208.488738
 30
0.0
  0
VERTEX
  5
16B
100
AcDbEntity
  8
LAYER_1
 62
     7
100
AcDbVertex
100
AcDb2dVertex
 10
63.573725
 20
219.140112
 30
0.0
  0
VERTEX
  5
16C
100
AcDbEntity
  8
LAYER_1
 62
     7
100
AcDbVertex
100
AcDb2dVertex
 10
65.8201
 20
219.140112
 30
0.0
  0
SEQEND
  5
16D
100
AcDbEntity
  8
LAYER_1
 62
     7
  0
SPLINE
  5
168
100
AcDbEntity
  8
LAYER_1
 62
     7
100
AcDbSpline
210
0.0
220
0.0
230
1.0
 70
     8
 71
     3
 72
    17
 73
    13
 74
     0
 42
0.00000001
 43
0.00000001
 40
0.0
 40
0.0
 40
0.0
 40
0.0
 40
1.0
 40
1.0
 40
1.0
 40
2.0
 40
2.0
 40
2.0
 40
3.0
 40
3.0
 40
3.0
 40
4.0
 40
4.0
 40
4.0
 40
4.0
 10
57.797505696614579
 20
208.20417344835067
 30
0.0
 10
57.873470052083327
 20
208.27238633897568
 30
0.0
 10
57.917395019531241
 20
208.36936577690972
 30
0.0
 10
57.918773057725687
 20
208.47168511284721
 30
0.0
 10
57.917222764756936
 20
208.6697781032986
 30
0.0
 10
57.757025824652771
 20
208.82997504340275
 30
0.0
 10
57.558932834201386
 20
208.8313530815972
 30
0.0
 10
57.36135660807291
 20
208.82963053385416
 30
0.0
 10
57.201676432291663
 20
208.66943359374997
 30
0.0
 10
57.200642903645829
 20
208.47168511284721
 30
0.0
 10
57.292971462673606
 20
208.23431803385415
 30
0.0
 10
57.558932834201386
 20
208.11528998480901
 30
0.0
 10
57.797505696614579
 20
208.20417344835067
 30
0.0
  0
POLYLINE
  5
163
100
AcDbEntity
  8
LAYER_1
 62
     7
100
AcDb2dPolyline
 66
     1
 10
0.0
 20
0.0
 30
0.0
  0
VERTEX
  5
164
100
AcDbEntity
  8
LAYER_1
 62
     7
100
AcDbVertex
100
AcDb2dVertex
 10
77.081944
 20
130.263883
 30
0.0
  0
VERTEX
  5
165
100
AcDbEntity
  8
LAYER_1
 62
     7
100
AcDbVertex
100
AcDb2dVertex
 10
92.980716
 20
152.589308
 30
0.0
  0
VERTEX
  5
166
100
AcDbEntity
  8
LAYER_1
 62
     7
100
AcDbVertex
100
AcDb2dVertex
 10
95.228468
 20
152.589308
 30
0.0
  0
SEQEND
  5
167
100
AcDbEntity
  8
LAYER_1
 62
     7
  0
SPLINE
  5
162
100
AcDbEntity
  8
LAYER_1
 62
     7
100
AcDbSpline
210
0.0
220
0.0
230
1.0
 70
     8
 71
     3
 72
    17
 73
    13
 74
     0
 42
0.00000001
 43
0.00000001
 40
0.0
 40
0.0
 40
0.0
 40
0.0
 40
1.0
 40
1.0
 40
1.0
 40
2.0
 40
2.0
 40
2.0
 40
3.0
 40
3.0
 40
3.0
 40
4.0
 40
4.0
 40
4.0
 40
4.0
 10
77.189259168836799
 20
129.97931857638886
 30
0.0
 10
77.265568033854166
 20
130.04787597656249
 30
0.0
 10
77.309493001302073
 20
130.14537217881943
 30
0.0
 10
77.310526529947907
 20
130.24769151475692
 30
0.0
 10
77.309320746527774
 20
130.44543999565971
 30
0.0
 10
77.149640570746527
 20
130.60529242621527
 30
0.0
 10
76.95223659939235
 20
130.60701497395831
 30
0.0
 10
76.754315863715277
 20
130.60563693576387
 30
0.0
 10
76.594118923611106
 20
130.44578450520831
 30
0.0
 10
76.592568630642347
 20
130.24769151475692
 30
0.0
 10
76.684552680121527
 20
130.01032443576386
 30
0.0
 10
76.950341796874994
 20
129.8904351128472
 30
0.0
 10
77.189259168836799
 20
129.97931857638886
 30
0.0
  0
POLYLINE
  5
15D
100
AcDbEntity
  8
LAYER_1
 62
     7
100
AcDb2dPolyline
 66
     1
 10
0.0
 20
0.0
 30
0.0
  0
VERTEX
  5
15E
100
AcDbEntity
  8
LAYER_1
 62
     7
100
AcDbVertex
100
AcDb2dVertex
 10
71.406666
 20
104.282696
 30
0.0
  0
VERTEX
  5
15F
100
AcDbEntity
  8
LAYER_1
 62
     7
100
AcDbVertex
100
AcDb2dVertex
 10
90.067543
 20
136.688642
 30
0.0
  0
VERTEX
  5
160
100
AcDbEntity
  8
LAYER_1
 62
     7
100
AcDbVertex
100
AcDb2dVertex
 10
92.313917
 20
136.688642
 30
0.0
  0
SEQEND
  5
161
100
AcDbEntity
  8
LAYER_1
 62
     7
  0
POLYLINE
  5
158
100
AcDbEntity
  8
LAYER_1
 62
     7
100
AcDb2dPolyline
 66
     1
 10
0.0
 20
0.0
 30
0.0
  0
VERTEX
  5
159
100
AcDbEntity
  8
LAYER_1
 62
     7
100
AcDbVertex
100
AcDb2dVertex
 10
77.170139
 20
102.878819
 30
0.0
  0
VERTEX
  5
15A
100
AcDbEntity
  8
LAYER_1
 62
     7
100
AcDbVertex
100
AcDb2dVertex
 10
90.29423
 20
119.942722
 30
0.0
  0
VERTEX
  5
15B
100
AcDbEntity
  8
LAYER_1
 62
     7
100
AcDbVertex
100
AcDb2dVertex
 10
92.540605
 20
119.942722
 30
0.0
  0
SEQEND
  5
15C
100
AcDbEntity
  8
LAYER_1
 62
     7
  0
POLYLINE
  5
153
100
AcDbEntity
  8
LAYER_1
 62
     7
100
AcDb2dPolyline
 66
     1
 10
0.0
 20
0.0
 30
0.0
  0
VERTEX
  5
154
100
AcDbEntity
  8
LAYER_1
 62
     7
100
AcDbVertex
100
AcDb2dVertex
 10
79.375
 20
108.126389
 30
0.0
  0
VERTEX
  5
155
100
AcDbEntity
  8
LAYER_1
 62
     7
100
AcDbVertex
100
AcDb2dVertex
 10
93.034631
 20
127.040652
 30
0.0
  0
VERTEX
  5
156
100
AcDbEntity
  8
LAYER_1
 62
     7
100
AcDbVertex
100
AcDb2dVertex
 10
95.281178
 20
127.040652
 30
0.0
  0
SEQEND
  5
157
100
AcDbEntity
  8
LAYER_1
 62
     7
  0
LINE
  5
152
100
AcDbEntity
  8
LAYER_1
 62
     7
100
AcDbLine
 10
77.066786
 20
85.889331
 30
0.0
 11
81.023478
 21
85.889331
 31
0.0
  0
POLYLINE
  5
14D
100
AcDbEntity
  8
LAYER_1
 62
     7
100
AcDb2dPolyline
 66
     1
 10
0.0
 20
0.0
 30
0.0
  0
VERTEX
  5
14E
100
AcDbEntity
  8
LAYER_1
 62
     7
100
AcDbVertex
100
AcDb2dVertex
 10
121.37726
 20
102.412354
 30
0.0
  0
VERTEX
  5
14F
100
AcDbEntity
  8
LAYER_1
 62
     7
100
AcDbVertex
100
AcDb2dVertex
 10
121.888512
 20
104.321625
 30
0.0
  0
VERTEX
  5
150
100
AcDbEntity
  8
LAYER_1
 62
     7
100
AcDbVertex
100
AcDb2dVertex
 10
122.399419
 20
102.412354
 30
0.0
  0
SEQEND
  5
151
100
AcDbEntity
  8
LAYER_1
 62
     7
  0
POLYLINE
  5
148
100
AcDbEntity
  8
LAYER_1
 62
     7
100
AcDb2dPolyline
 66
     1
 10
0.0
 20
0.0
 30
0.0
  0
VERTEX
  5
149
100
AcDbEntity
  8
LAYER_1
 62
     7
100
AcDbVertex
100
AcDb2dVertex
 10
121.379671
 20
95.66789
 30
0.0
  0
VERTEX
  5
14A
100
AcDbEntity
  8
LAYER_1
 62
     7
100
AcDbVertex
100
AcDb2dVertex
 10
121.892301
 20
93.758963
 30
0.0
  0
VERTEX
  5
14B
100
AcDbEntity
  8
LAYER_1
 62
     7
100
AcDbVertex
100
AcDb2dVertex
 10
122.403554
 20
95.66789
 30
0.0
  0
SEQEND
  5
14C
100
AcDbEntity
  8
LAYER_1
 62
     7
  0
POLYLINE
  5
143
100
AcDbEntity
  8
LAYER_1
 62
     7
100
AcDb2dPolyline
 66
     1
 10
0.0
 20
0.0
 30
0.0
  0
VERTEX
  5
144
100
AcDbEntity
  8
LAYER_1
 62
     7
100
AcDbVertex
100
AcDb2dVertex
 10
87.724878
 20
98.766409
 30
0.0
  0
VERTEX
  5
145
100
AcDbEntity
  8
LAYER_1
 62
     7
100
AcDbVertex
100
AcDb2dVertex
 10
88.23613
 20
100.675681
 30
0.0
  0
VERTEX
  5
146
100
AcDbEntity
  8
LAYER_1
 62
     7
100
AcDbVertex
100
AcDb2dVertex
 10
88.747382
 20
98.766409
 30
0.0
  0
SEQEND
  5
147
100
AcDbEntity
  8
LAYER_1
 62
     7
  0
POLYLINE
  5
13E
100
AcDbEntity
  8
LAYER_1
 62
     7
100
AcDb2dPolyline
 66
     1
 10
0.0
 20
0.0
 30
0.0
  0
VERTEX
  5
13F
100
AcDbEntity
  8
LAYER_1
 62
     7
100
AcDbVertex
100
AcDb2dVertex
 10
87.677508
 20
106.559559
 30
0.0
  0
VERTEX
  5
140
100
AcDbEntity
  8
LAYER_1
 62
     7
100
AcDbVertex
100
AcDb2dVertex
 10
88.18876
 20
104.650288
 30
0.0
  0
VERTEX
  5
141
100
AcDbEntity
  8
LAYER_1
 62
     7
100
AcDbVertex
100
AcDb2dVertex
 10
88.701218
 20
106.559559
 30
0.0
  0
SEQEND
  5
142
100
AcDbEntity
  8
LAYER_1
 62
     7
  0
POLYLINE
  5
139
100
AcDbEntity
  8
LAYER_1
 62
     7
100
AcDb2dPolyline
 66
     1
 10
0.0
 20
0.0
 30
0.0
  0
VERTEX
  5
13A
100
AcDbEntity
  8
LAYER_1
 62
     7
100
AcDbVertex
100
AcDb2dVertex
 10
71.805608
 20
77.269013
 30
0.0
  0
VERTEX
  5
13B
100
AcDbEntity
  8
LAYER_1
 62
     7
100
AcDbVertex
100
AcDb2dVertex
 10
69.896509
 20
77.78061
 30
0.0
  0
VERTEX
  5
13C
100
AcDbEntity
  8
LAYER_1
 62
     7
100
AcDbVertex
100
AcDb2dVertex
 10
71.805608
 20
78.291862
 30
0.0
  0
SEQEND
  5
13D
100
AcDbEntity
  8
LAYER_1
 62
     7
  0
POLYLINE
  5
134
100
AcDbEntity
  8
LAYER_1
 62
     7
100
AcDb2dPolyline
 66
     1
 10
0.0
 20
0.0
 30
0.0
  0
VERTEX
  5
135
100
AcDbEntity
  8
LAYER_1
 62
     7
100
AcDbVertex
100
AcDb2dVertex
 10
46.211994
 20
154.571444
 30
0.0
  0
VERTEX
  5
136
100
AcDbEntity
  8
LAYER_1
 62
     7
100
AcDbVertex
100
AcDb2dVertex
 10
44.302894
 20
155.08304
 30
0.0
  0
VERTEX
  5
137
100
AcDbEntity
  8
LAYER_1
 62
     7
100
AcDbVertex
100
AcDb2dVertex
 10
46.211994
 20
155.594465
 30
0.0
  0
SEQEND
  5
138
100
AcDbEntity
  8
LAYER_1
 62
     7
  0
POLYLINE
  5
12F
100
AcDbEntity
  8
LAYER_1
 62
     7
100
AcDb2dPolyline
 66
     1
 10
0.0
 20
0.0
 30
0.0
  0
VERTEX
  5
130
100
AcDbEntity
  8
LAYER_1
 62
     7
100
AcDbVertex
100
AcDb2dVertex
 10
39.488373
 20
154.687543
 30
0.0
  0
VERTEX
  5
131
100
AcDbEntity
  8
LAYER_1
 62
     7
100
AcDbVertex
100
AcDb2dVertex
 10
41.397473
 20
155.199312
 30
0.0
  0
VERTEX
  5
132
100
AcDbEntity
  8
LAYER_1
 62
     7
100
AcDbVertex
100
AcDb2dVertex
 10
39.488373
 20
155.710565
 30
0.0
  0
SEQEND
  5
133
100
AcDbEntity
  8
LAYER_1
 62
     7
  0
POLYLINE
  5
12A
100
AcDbEntity
  8
LAYER_1
 62
     7
100
AcDb2dPolyline
 66
     1
 10
0.0
 20
0.0
 30
0.0
  0
VERTEX
  5
12B
100
AcDbEntity
  8
LAYER_1
 62
     7
100
AcDbVertex
100
AcDb2dVertex
 10
65.955836
 20
154.627771
 30
0.0
  0
VERTEX
  5
12C
100
AcDbEntity
  8
LAYER_1
 62
     7
100
AcDbVertex
100
AcDb2dVertex
 10
67.865108
 20
155.139368
 30
0.0
  0
VERTEX
  5
12D
100
AcDbEntity
  8
LAYER_1
 62
     7
100
AcDbVertex
100
AcDb2dVertex
 10
65.955836
 20
155.65062
 30
0.0
  0
SEQEND
  5
12E
100
AcDbEntity
  8
LAYER_1
 62
     7
  0
POLYLINE
  5
125
100
AcDbEntity
  8
LAYER_1
 62
     7
100
AcDb2dPolyline
 66
     1
 10
0.0
 20
0.0
 30
0.0
  0
VERTEX
  5
126
100
AcDbEntity
  8
LAYER_1
 62
     7
100
AcDbVertex
100
AcDb2dVertex
 10
78.976058
 20
85.377734
 30
0.0
  0
VERTEX
  5
127
100
AcDbEntity
  8
LAYER_1
 62
     7
100
AcDbVertex
100
AcDb2dVertex
 10
77.066786
 20
85.889331
 30
0.0
  0
VERTEX
  5
128
100
AcDbEntity
  8
LAYER_1
 62
     7
100
AcDbVertex
100
AcDb2dVertex
 10
78.976058
 20
86.400928
 30
0.0
  0
SEQEND
  5
129
100
AcDbEntity
  8
LAYER_1
 62
     7
  0
LINE
  5
124
100
AcDbEntity
  8
LAYER_1
 62
     7
100
AcDbLine
 10
69.920797
 20
85.889331
 30
0.0
 11
65.965483
 21
85.889331
 31
0.0
  0
LINE
  5
123
100
AcDbEntity
  8
LAYER_1
 62
     7
100
AcDbLine
 10
88.227001
 20
102.919472
 30
0.0
 11
88.227001
 21
96.442348
 31
0.0
  0
POLYLINE
  5
11E
100
AcDbEntity
  8
LAYER_1
 62
     7
100
AcDb2dPolyline
 66
     1
 10
0.0
 20
0.0
 30
0.0
  0
VERTEX
  5
11F
100
AcDbEntity
  8
LAYER_1
 62
     7
100
AcDbVertex
100
AcDb2dVertex
 10
83.500846
 20
204.393726
 30
0.0
  0
VERTEX
  5
120
100
AcDbEntity
  8
LAYER_1
 62
     7
100
AcDbVertex
100
AcDb2dVertex
 10
82.989594
 20
206.302998
 30
0.0
  0
VERTEX
  5
121
100
AcDbEntity
  8
LAYER_1
 62
     7
100
AcDbVertex
100
AcDb2dVertex
 10
82.476964
 20
204.393726
 30
0.0
  0
SEQEND
  5
122
100
AcDbEntity
  8
LAYER_1
 62
     7
  0
POLYLINE
  5
119
100
AcDbEntity
  8
LAYER_1
 62
     7
100
AcDb2dPolyline
 66
     1
 10
0.0
 20
0.0
 30
0.0
  0
VERTEX
  5
11A
100
AcDbEntity
  8
LAYER_1
 62
     7
100
AcDbVertex
100
AcDb2dVertex
 10
82.476964
 20
185.801407
 30
0.0
  0
VERTEX
  5
11B
100
AcDbEntity
  8
LAYER_1
 62
     7
100
AcDbVertex
100
AcDb2dVertex
 10
82.989594
 20
183.893685
 30
0.0
  0
VERTEX
  5
11C
100
AcDbEntity
  8
LAYER_1
 62
     7
100
AcDbVertex
100
AcDb2dVertex
 10
83.500846
 20
185.801407
 30
0.0
  0
SEQEND
  5
11D
100
AcDbEntity
  8
LAYER_1
 62
     7
  0
POLYLINE
  5
114
100
AcDbEntity
  8
LAYER_1
 62
     7
100
AcDb2dPolyline
 66
     1
 10
0.0
 20
0.0
 30
0.0
  0
VERTEX
  5
115
100
AcDbEntity
  8
LAYER_1
 62
     7
100
AcDbVertex
100
AcDb2dVertex
 10
82.505903
 20
211.376934
 30
0.0
  0
VERTEX
  5
116
100
AcDbEntity
  8
LAYER_1
 62
     7
100
AcDbVertex
100
AcDb2dVertex
 10
83.018533
 20
209.46904
 30
0.0
  0
VERTEX
  5
117
100
AcDbEntity
  8
LAYER_1
 62
     7
100
AcDbVertex
100
AcDb2dVertex
 10
83.529785
 20
211.376934
 30
0.0
  0
SEQEND
  5
118
100
AcDbEntity
  8
LAYER_1
 62
     7
  0
POLYLINE
  5
10F
100
AcDbEntity
  8
LAYER_1
 62
     7
100
AcDb2dPolyline
 66
     1
 10
0.0
 20
0.0
 30
0.0
  0
VERTEX
  5
110
100
AcDbEntity
  8
LAYER_1
 62
     7
100
AcDbVertex
100
AcDb2dVertex
 10
95.49064
 20
165.128767
 30
0.0
  0
VERTEX
  5
111
100
AcDbEntity
  8
LAYER_1
 62
     7
100
AcDbVertex
100
AcDb2dVertex
 10
94.97956
 20
167.037866
 30
0.0
  0
VERTEX
  5
112
100
AcDbEntity
  8
LAYER_1
 62
     7
100
AcDbVertex
100
AcDb2dVertex
 10
94.468308
 20
165.128767
 30
0.0
  0
SEQEND
  5
113
100
AcDbEntity
  8
LAYER_1
 62
     7
  0
POLYLINE
  5
10A
100
AcDbEntity
  8
LAYER_1
 62
     7
100
AcDb2dPolyline
 66
     1
 10
0.0
 20
0.0
 30
0.0
  0
VERTEX
  5
10B
100
AcDbEntity
  8
LAYER_1
 62
     7
100
AcDbVertex
100
AcDb2dVertex
 10
94.435235
 20
170.442999
 30
0.0
  0
VERTEX
  5
10C
100
AcDbEntity
  8
LAYER_1
 62
     7
100
AcDbVertex
100
AcDb2dVertex
 10
94.947865
 20
168.534071
 30
0.0
  0
VERTEX
  5
10D
100
AcDbEntity
  8
LAYER_1
 62
     7
100
AcDbVertex
100
AcDb2dVertex
 10
95.459117
 20
170.442999
 30
0.0
  0
SEQEND
  5
10E
100
AcDbEntity
  8
LAYER_1
 62
     7
  0
LINE
  5
109
100
AcDbEntity
  8
LAYER_1
 62
     7
100
AcDbLine
 10
94.97422
 20
181.309863
 30
0.0
 11
94.97422
 21
160.370401
 31
0.0
  0
LINE
  5
108
100
AcDbEntity
  8
LAYER_1
 62
     7
100
AcDbLine
 10
80.315683
 20
168.546646
 30
0.0
 11
161.552585
 21
168.546646
 31
0.0
  0
POLYLINE
  5
103
100
AcDbEntity
  8
LAYER_1
 62
     7
100
AcDb2dPolyline
 66
     1
 10
0.0
 20
0.0
 30
0.0
  0
VERTEX
  5
104
100
AcDbEntity
  8
LAYER_1
 62
     7
100
AcDbVertex
100
AcDb2dVertex
 10
162.179937
 20
166.706793
 30
0.0
  0
VERTEX
  5
105
100
AcDbEntity
  8
LAYER_1
 62
     7
100
AcDbVertex
100
AcDb2dVertex
 10
161.668685
 20
168.616064
 30
0.0
  0
VERTEX
  5
106
100
AcDbEntity
  8
LAYER_1
 62
     7
100
AcDbVertex
100
AcDb2dVertex
 10
161.157433
 20
166.706793
 30
0.0
  0
SEQEND
  5
107
100
AcDbEntity
  8
LAYER_1
 62
     7
  0
POLYLINE
  5
FE
100
AcDbEntity
  8
LAYER_1
 62
     7
100
AcDb2dPolyline
 66
     1
 10
0.0
 20
0.0
 30
0.0
  0
VERTEX
  5
FF
100
AcDbEntity
  8
LAYER_1
 62
     7
100
AcDbVertex
100
AcDb2dVertex
 10
144.440107
 20
77.269013
 30
0.0
  0
VERTEX
  5
100
100
AcDbEntity
  8
LAYER_1
 62
     7
100
AcDbVertex
100
AcDb2dVertex
 10
146.349379
 20
77.78061
 30
0.0
  0
VERTEX
  5
101
100
AcDbEntity
  8
LAYER_1
 62
     7
100
AcDbVertex
100
AcDb2dVertex
 10
144.440107
 20
78.291862
 30
0.0
  0
SEQEND
  5
102
100
AcDbEntity
  8
LAYER_1
 62
     7
  0
POLYLINE
  5
F9
100
AcDbEntity
  8
LAYER_1
 62
     7
100
AcDb2dPolyline
 66
     1
 10
0.0
 20
0.0
 30
0.0
  0
VERTEX
  5
FA
100
AcDbEntity
  8
LAYER_1
 62
     7
100
AcDbVertex
100
AcDb2dVertex
 10
68.011697
 20
85.377734
 30
0.0
  0
VERTEX
  5
FB
100
AcDbEntity
  8
LAYER_1
 62
     7
100
AcDbVertex
100
AcDb2dVertex
 10
69.920797
 20
85.889331
 30
0.0
  0
VERTEX
  5
FC
100
AcDbEntity
  8
LAYER_1
 62
     7
100
AcDbVertex
100
AcDb2dVertex
 10
68.011697
 20
86.400928
 30
0.0
  0
SEQEND
  5
FD
100
AcDbEntity
  8
LAYER_1
 62
     7
  0
POLYLINE
  5
F4
100
AcDbEntity
  8
LAYER_1
 62
     7
100
AcDb2dPolyline
 66
     1
 10
0.0
 20
0.0
 30
0.0
  0
VERTEX
  5
F5
100
AcDbEntity
  8
LAYER_1
 62
     7
100
AcDbVertex
100
AcDb2dVertex
 10
161.157433
 20
106.563349
 30
0.0
  0
VERTEX
  5
F6
100
AcDbEntity
  8
LAYER_1
 62
     7
100
AcDbVertex
100
AcDb2dVertex
 10
161.668685
 20
104.654077
 30
0.0
  0
VERTEX
  5
F7
100
AcDbEntity
  8
LAYER_1
 62
     7
100
AcDbVertex
100
AcDb2dVertex
 10
162.179937
 20
106.563349
 30
0.0
  0
SEQEND
  5
F8
100
AcDbEntity
  8
LAYER_1
 62
     7
  0
POLYLINE
  5
EF
100
AcDbEntity
  8
LAYER_1
 62
     7
100
AcDb2dPolyline
 66
     1
 10
0.0
 20
0.0
 30
0.0
  0
VERTEX
  5
F0
100
AcDbEntity
  8
LAYER_1
 62
     7
100
AcDbVertex
100
AcDb2dVertex
 10
142.685175
 20
110.277851
 30
0.0
  0
VERTEX
  5
F1
100
AcDbEntity
  8
LAYER_1
 62
     7
100
AcDbVertex
100
AcDb2dVertex
 10
144.594103
 20
110.789448
 30
0.0
  0
VERTEX
  5
F2
100
AcDbEntity
  8
LAYER_1
 62
     7
100
AcDbVertex
100
AcDb2dVertex
 10
142.685175
 20
111.3007
 30
0.0
  0
SEQEND
  5
F3
100
AcDbEntity
  8
LAYER_1
 62
     7
  0
MTEXT
  5
EE
100
AcDbEntity
  8
LAYER_1
 62
     7
100
AcDbMText
 10
158.357134
 20
118.538845
 30
0.0
 40
2.608062
 41
0.0
 71
     1
 72
     2
  1
\W0.50;\fMS Gothic|b0|i0|c128;乾式保護工法  600以下
  7
KANJISTD
210
0.0
220
0.0
230
1.0
 11
0.0
 21
1.0
 31
0.0
 73
     1
 44
1.0
  0
MTEXT
  5
ED
100
AcDbEntity
  8
LAYER_1
 62
     7
100
AcDbMText
 10
33.119253
 20
158.332235
 30
0.0
 40
2.608062
 41
0.0
 71
     1
 72
     2
  1
\W0.50;\fMS Gothic|b0|i0|c128;(20)
  7
STD
210
0.0
220
0.0
230
1.0
 11
1.000001
 21
0.0
 31
0.0
 73
     1
 44
1.0
  0
MTEXT
  5
EC
100
AcDbEntity
  8
LAYER_1
 62
     7
100
AcDbMText
 10
50.665469
 20
158.099863
 30
0.0
 40
2.608062
 41
0.0
 71
     1
 72
     2
  1
\W0.50;\fMS Gothic|b0|i0|c128;(180)
  7
STD
210
0.0
220
0.0
230
1.0
 11
1.000001
 21
0.0
 31
0.0
 73
     1
 44
1.0
  0
LINE
  5
EB
100
AcDbEntity
  8
LAYER_1
 62
     7
100
AcDbLine
 10
67.920402
 20
155.1044
 30
0.0
 11
30.784512
 21
155.1044
 31
0.0
  0
MTEXT
  5
EA
100
AcDbEntity
  8
LAYER_1
 62
     7
100
AcDbMText
 10
83.16827
 20
205.991905
 30
0.0
 40
2.608062
 41
0.0
 71
     1
 72
     2
  1
\W0.50;\fMS Gothic|b0|i0|c128;(25)
  7
STD
210
0.0
220
0.0
230
1.0
 11
0.0
 21
1.0
 31
0.0
 73
     1
 44
1.0
  0
MTEXT
  5
E9
100
AcDbEntity
  8
LAYER_1
 62
     7
100
AcDbMText
 10
83.227526
 20
192.813554
 30
0.0
 40
2.608062
 41
0.0
 71
     1
 72
     2
  1
\W0.50;\fMS Gothic|b0|i0|c128;(170)
  7
STD
210
0.0
220
0.0
230
1.0
 11
0.0
 21
1.0
 31
0.0
 73
     1
 44
1.0
  0
MTEXT
  5
E8
100
AcDbEntity
  8
LAYER_1
 62
     7
100
AcDbMText
 10
129.14216
 20
114.939879
 30
0.0
 40
2.608062
 41
0.0
 71
     1
 72
     2
  1
\W0.50;\fMS Gothic|b0|i0|c128;伸縮目地
  7
KANJISTD
210
0.0
220
0.0
230
1.0
 11
1.000001
 21
0.0
 31
0.0
 73
     1
 44
1.0
  0
MTEXT
  5
E7
100
AcDbEntity
  8
LAYER_1
 62
     7
100
AcDbMText
 10
179.283458
 20
121.29229
 30
0.0
 40
2.608062
 41
0.0
 71
     1
 72
     2
  1
\W0.50;\fMS Gothic|b0|i0|c128;防水層
  7
KANJISTD
210
0.0
220
0.0
230
1.0
 11
1.000001
 21
0.0
 31
0.0
 73
     1
 44
1.0
  0
MTEXT
  5
E6
100
AcDbEntity
  8
LAYER_1
 62
     7
100
AcDbMText
 10
178.721908
 20
132.236325
 30
0.0
 40
2.608062
 41
0.0
 71
     1
 72
     2
  1
\W0.50;\fMS Gothic|b0|i0|c128;押さえコンクリート
  7
KANJISTD
210
0.0
220
0.0
230
1.0
 11
1.000001
 21
0.0
 31
0.0
 73
     1
 44
1.0
  0
MTEXT
  5
E5
100
AcDbEntity
  8
LAYER_1
 62
     7
100
AcDbMText
 10
118.761054
 20
111.453787
 30
0.0
 40
2.608062
 41
0.0
 71
     1
 72
     2
  1
\W0.50;\fMS Gothic|b0|i0|c128;溶接金網
  7
KANJISTD
210
0.0
220
0.0
230
1.0
 11
1.000001
 21
0.0
 31
0.0
 73
     1
 44
1.0
  0
POLYLINE
  5
E0
100
AcDbEntity
  8
LAYER_1
 62
     7
100
AcDb2dPolyline
 66
     1
 10
0.0
 20
0.0
 30
0.0
  0
VERTEX
  5
E1
100
AcDbEntity
  8
LAYER_1
 62
     7
100
AcDbVertex
100
AcDb2dVertex
 10
81.565219
 20
100.662934
 30
0.0
  0
VERTEX
  5
E2
100
AcDbEntity
  8
LAYER_1
 62
     7
100
AcDbVertex
100
AcDb2dVertex
 10
88.227001
 20
100.662934
 30
0.0
  0
VERTEX
  5
E3
100
AcDbEntity
  8
LAYER_1
 62
     7
100
AcDbVertex
100
AcDb2dVertex
 10
88.227001
 20
111.355132
 30
0.0
  0
SEQEND
  5
E4
100
AcDbEntity
  8
LAYER_1
 62
     7
  0
MTEXT
  5
DF
100
AcDbEntity
  8
LAYER_1
 62
     7
100
AcDbMText
 10
92.217799
 20
137.909364
 30
0.0
 40
2.608062
 41
0.0
 71
     1
 72
     2
  1
\W0.50;\fMS Gothic|b0|i0|c128;成形緩衝材
  7
KANJISTD
210
0.0
220
0.0
230
1.0
 11
1.000001
 21
0.0
 31
0.0
 73
     1
 44
1.0
  0
MTEXT
  5
DE
100
AcDbEntity
  8
LAYER_1
 62
     7
100
AcDbMText
 10
92.934551
 20
121.214776
 30
0.0
 40
2.608062
 41
0.0
 71
     1
 72
     2
  1
\W0.50;\fMS Gothic|b0|i0|c128;アンカー
  7
KANJISTD
210
0.0
220
0.0
230
1.0
 11
1.000001
 21
0.0
 31
0.0
 73
     1
 44
1.0
  0
MTEXT
  5
DD
100
AcDbEntity
  8
LAYER_1
 62
     7
100
AcDbMText
 10
91.632353
 20
170.859683
 30
0.0
 40
2.608062
 41
0.0
 71
     1
 72
     2
  1
\W0.50;\fMS Gothic|b0|i0|c128;10程度
  7
KANJISTD
210
0.0
220
0.0
230
1.0
 11
0.0
 21
1.0
 31
0.0
 73
     1
 44
1.0
  0
MTEXT
  5
DC
100
AcDbEntity
  8
LAYER_1
 62
     7
100
AcDbMText
 10
89.365997
 20
99.859193
 30
0.0
 40
2.608062
 41
0.0
 71
     1
 72
     2
  1
\W0.50;\fMS Gothic|b0|i0|c128;50以下
  7
KANJISTD
210
0.0
220
0.0
230
1.0
 11
0.0
 21
1.0
 31
0.0
 73
     1
 44
1.0
  0
MTEXT
  5
DB
100
AcDbEntity
  8
LAYER_1
 62
     7
100
AcDbMText
 10
70.811871
 20
89.246357
 30
0.0
 40
2.608062
 41
0.0
 71
     1
 72
     2
  1
\W0.50;\fMS Gothic|b0|i0|c128;30以上
  7
KANJISTD
210
0.0
220
0.0
230
1.0
 11
1.000001
 21
0.0
 31
0.0
 73
     1
 44
1.0
  0
MTEXT
  5
DA
100
AcDbEntity
  8
LAYER_1
 62
     7
100
AcDbMText
 10
103.509444
 20
80.737315
 30
0.0
 40
2.608062
 41
0.0
 71
     1
 72
     2
  1
\W0.50;\fMS Gothic|b0|i0|c128;600程度
  7
KANJISTD
210
0.0
220
0.0
230
1.0
 11
1.000001
 21
0.0
 31
0.0
 73
     1
 44
1.0
  0
MTEXT
  5
D9
100
AcDbEntity
  8
LAYER_1
 62
     7
100
AcDbMText
 10
144.897271
 20
114.204007
 30
0.0
 40
2.608062
 41
0.0
 71
     1
 72
     2
  1
\W0.50;\fMS Gothic|b0|i0|c128;(25)
  7
STD
210
0.0
220
0.0
230
1.0
 11
1.000001
 21
0.0
 31
0.0
 73
     1
 44
1.0
  0
MTEXT
  5
D8
100
AcDbEntity
  8
LAYER_1
 62
     7
100
AcDbMText
 10
118.641385
 20
96.412031
 30
0.0
 40
2.608062
 41
0.0
 71
     1
 72
     2
  1
\W0.50;\fMS Gothic|b0|i0|c128;(80)
  7
STD
210
0.0
220
0.0
230
1.0
 11
0.0
 21
1.0
 31
0.0
 73
     1
 44
1.0
  0
LINE
  5
D7
100
AcDbEntity
  8
LAYER_1
 62
     7
100
AcDbLine
 10
121.892301
 20
93.758963
 30
0.0
 11
121.892301
 21
104.565538
 31
0.0
  0
POLYLINE
  5
D1
100
AcDbEntity
  8
LAYER_1
 62
     7
100
AcDb2dPolyline
 66
     1
 10
0.0
 20
0.0
 30
0.0
  0
VERTEX
  5
D2
100
AcDbEntity
  8
LAYER_1
 62
     7
100
AcDbVertex
100
AcDb2dVertex
 10
146.349379
 20
96.399973
 30
0.0
  0
VERTEX
  5
D3
100
AcDbEntity
  8
LAYER_1
 62
     7
100
AcDbVertex
100
AcDb2dVertex
 10
146.349379
 20
77.78061
 30
0.0
  0
VERTEX
  5
D4
100
AcDbEntity
  8
LAYER_1
 62
     7
100
AcDbVertex
100
AcDb2dVertex
 10
69.896509
 20
77.78061
 30
0.0
  0
VERTEX
  5
D5
100
AcDbEntity
  8
LAYER_1
 62
     7
100
AcDbVertex
100
AcDb2dVertex
 10
69.896509
 20
85.889331
 30
0.0
  0
SEQEND
  5
D6
100
AcDbEntity
  8
LAYER_1
 62
     7
  0
POLYLINE
  5
CB
100
AcDbEntity
  8
LAYER_1
 62
     7
100
AcDb2dPolyline
 66
     1
 10
0.0
 20
0.0
 30
0.0
  0
VERTEX
  5
CC
100
AcDbEntity
  8
LAYER_1
 62
     7
100
AcDbVertex
100
AcDb2dVertex
 10
148.130493
 20
105.351364
 30
0.0
  0
VERTEX
  5
CD
100
AcDbEntity
  8
LAYER_1
 62
     7
100
AcDbVertex
100
AcDb2dVertex
 10
148.130493
 20
110.733982
 30
0.0
  0
VERTEX
  5
CE
100
AcDbEntity
  8
LAYER_1
 62
     7
100
AcDbVertex
100
AcDb2dVertex
 10
144.702279
 20
110.733982
 30
0.0
  0
VERTEX
  5
CF
100
AcDbEntity
  8
LAYER_1
 62
     7
100
AcDbVertex
100
AcDb2dVertex
 10
144.702279
 20
105.351364
 30
0.0
  0
SEQEND
  5
D0
100
AcDbEntity
  8
LAYER_1
 62
     7
  0
POLYLINE
  5
C5
100
AcDbEntity
  8
LAYER_1
 62
     7
100
AcDb2dPolyline
 66
     1
 10
0.0
 20
0.0
 30
0.0
 70
     1
  0
VERTEX
  5
C6
100
AcDbEntity
  8
LAYER_1
 62
     7
100
AcDbVertex
100
AcDb2dVertex
 10
148.073994
 20
94.250922
 30
0.0
  0
VERTEX
  5
C7
100
AcDbEntity
  8
LAYER_1
 62
     7
100
AcDbVertex
100
AcDb2dVertex
 10
148.073994
 20
104.420155
 30
0.0
  0
VERTEX
  5
C8
100
AcDbEntity
  8
LAYER_1
 62
     7
100
AcDbVertex
100
AcDb2dVertex
 10
144.779793
 20
104.420155
 30
0.0
  0
VERTEX
  5
C9
100
AcDbEntity
  8
LAYER_1
 62
     7
100
AcDbVertex
100
AcDb2dVertex
 10
144.779793
 20
94.250922
 30
0.0
  0
SEQEND
  5
CA
100
AcDbEntity
  8
LAYER_1
 62
     7
  0
MTEXT
  5
C4
100
AcDbEntity
  8
LAYER_1
 62
     7
100
AcDbMText
 10
66.735978
 20
220.51483
 30
0.0
 40
2.608062
 41
0.0
 71
     1
 72
     2
  1
\W0.50;\fMS Gothic|b0|i0|c128;コンクリートこて仕上げA種
  7
KANJISTD
210
0.0
220
0.0
230
1.0
 11
1.000001
 21
0.0
 31
0.0
 73
     1
 44
1.0
  0
LINE
  5
C3
100
AcDbEntity
  8
LAYER_1
 62
     7
100
AcDbLine
 10
72.703228
 20
161.343812
 30
0.0
 11
68.086456
 21
165.947321
 31
0.0
  0
LINE
  5
C2
100
AcDbEntity
  8
LAYER_1
 62
     7
100
AcDbLine
 10
71.01272
 20
161.303849
 30
0.0
 11
71.819044
 21
162.110691
 31
0.0
  0
LINE
  5
C1
100
AcDbEntity
  8
LAYER_1
 62
     7
100
AcDbLine
 10
69.498945
 20
161.106962
 30
0.0
 11
71.189281
 21
162.798504
 31
0.0
  0
LINE
  5
C0
100
AcDbEntity
  8
LAYER_1
 62
     7
100
AcDbLine
 10
68.60167
 20
161.527091
 30
0.0
 11
70.523861
 21
163.450833
 31
0.0
  0
LINE
  5
BF
100
AcDbEntity
  8
LAYER_1
 62
     7
100
AcDbLine
 10
68.135204
 20
164.877964
 30
0.0
 11
68.702955
 21
165.445715
 31
0.0
  0
LINE
  5
BE
100
AcDbEntity
  8
LAYER_1
 62
     7
100
AcDbLine
 10
68.077154
 20
163.628944
 30
0.0
 11
69.240735
 21
164.792181
 31
0.0
  0
LINE
  5
BD
100
AcDbEntity
  8
LAYER_1
 62
     7
100
AcDbLine
 10
67.990337
 20
162.23437
 30
0.0
 11
69.923036
 21
164.167585
 31
0.0
  0
LINE
  5
BC
100
AcDbEntity
  8
LAYER_1
 62
     7
100
AcDbLine
 10
62.752931
 20
158.451138
 30
0.0
 11
70.858552
 21
158.451138
 31
0.0
  0
POLYLINE
  5
B7
100
AcDbEntity
  8
LAYER_1
 62
     7
100
AcDb2dPolyline
 66
     1
 10
0.0
 20
0.0
 30
0.0
  0
VERTEX
  5
B8
100
AcDbEntity
  8
LAYER_1
 62
     7
100
AcDbVertex
100
AcDb2dVertex
 10
72.694099
 20
161.278872
 30
0.0
  0
VERTEX
  5
B9
100
AcDbEntity
  8
LAYER_1
 62
     7
100
AcDbVertex
100
AcDb2dVertex
 10
70.566063
 20
161.278872
 30
0.0
  0
VERTEX
  5
BA
100
AcDbEntity
  8
LAYER_1
 62
     7
100
AcDbVertex
100
AcDb2dVertex
 10
70.566063
 20
152.767075
 30
0.0
  0
SEQEND
  5
BB
100
AcDbEntity
  8
LAYER_1
 62
     7
  0
LINE
  5
B6
100
AcDbEntity
  8
LAYER_1
 62
     7
100
AcDbLine
 10
73.716431
 20
85.889331
 30
0.0
 11
72.331675
 21
85.889331
 31
0.0
  0
LINE
  5
B5
100
AcDbEntity
  8
LAYER_1
 62
     7
100
AcDbLine
 10
78.493917
 20
183.893685
 30
0.0
 11
82.989594
 21
183.893685
 31
0.0
  0
LINE
  5
B4
100
AcDbEntity
  8
LAYER_1
 62
     7
100
AcDbLine
 10
78.493917
 20
206.292318
 30
0.0
 11
82.989594
 21
206.292318
 31
0.0
  0
LINE
  5
B3
100
AcDbEntity
  8
LAYER_1
 62
     7
100
AcDbLine
 10
82.989594
 20
183.90402
 30
0.0
 11
82.989594
 21
214.861993
 31
0.0
  0
LINE
  5
B2
100
AcDbEntity
  8
LAYER_1
 62
     7
100
AcDbLine
 10
161.668685
 20
168.546646
 30
0.0
 11
161.668685
 21
104.654077
 31
0.0
  0
LINE
  5
B1
100
AcDbEntity
  8
LAYER_1
 62
     7
100
AcDbLine
 10
50.818259
 20
209.350529
 30
0.0
 11
82.911907
 21
209.424254
 31
0.0
  0
MTEXT
  5
B0
100
AcDbEntity
  8
LAYER_1
 62
     7
100
AcDbMText
 10
95.019006
 20
128.365072
 30
0.0
 40
2.608062
 41
0.0
 71
     1
 72
     2
  1
\W0.50;\fMS Gothic|b0|i0|c128;下部ホルダー
  7
KANJISTD
210
0.0
220
0.0
230
1.0
 11
1.000001
 21
0.0
 31
0.0
 73
     1
 44
1.0
  0
MTEXT
  5
AF
100
AcDbEntity
  8
LAYER_1
 62
     7
100
AcDbMText
 10
95.532842
 20
153.883411
 30
0.0
 40
2.608062
 41
0.0
 71
     1
 72
     2
  1
\W0.50;\fMS Gothic|b0|i0|c128;ボード
  7
KANJISTD
210
0.0
220
0.0
230
1.0
 11
1.000001
 21
0.0
 31
0.0
 73
     1
 44
1.0
  0
SPLINE
  5
AE
100
AcDbEntity
  8
LAYER_1
 62
     7
100
AcDbSpline
210
0.0
220
0.0
230
1.0
 70
     8
 71
     3
 72
    20
 73
    16
 74
     0
 42
0.00000001
 43
0.00000001
 40
0.0
 40
0.0
 40
0.0
 40
0.0
 40
1.0
 40
1.0
 40
1.0
 40
2.0
 40
2.0
 40
2.0
 40
3.0
 40
3.0
 40
3.0
 40
4.0
 40
4.0
 40
4.0
 40
5.0
 40
5.0
 40
5.0
 40
5.0
 10
181.67090928819442
 20
98.247577582465269
 30
0.0
 10
181.91206597222219
 20
98.404329427083326
 30
0.0
 10
182.05055881076387
 20
98.678903537326377
 30
0.0
 10
182.0333333333333
 20
98.966224500868051
 30
0.0
 10
181.98269042968749
 20
99.32244737413194
 30
0.0
 10
181.67986653645832
 20
99.58840874565972
 30
0.0
 10
181.3201985677083
 20
99.592887369791654
 30
0.0
 10
181.1186604817708
 20
99.579796006944434
 30
0.0
 10
180.93021375868054
 20
99.487467447916657
 30
0.0
 10
180.79688856336804
 20
99.33553873697916
 30
0.0
 10
180.66356336805555
 20
99.183610026041663
 30
0.0
 10
180.59603949652777
 20
98.985172526041652
 30
0.0
 10
180.60878634982637
 20
98.783634440104152
 30
0.0
 10
180.78207465277777
 20
98.367466905381931
 30
0.0
 10
181.23303765190971
 20
98.139746093749991
 30
0.0
 10
181.67090928819442
 20
98.247577582465269
 30
0.0
  0
SPLINE
  5
AD
100
AcDbEntity
  8
LAYER_1
 62
     7
100
AcDbSpline
210
0.0
220
0.0
230
1.0
 70
     8
 71
     3
 72
    17
 73
    13
 74
     0
 42
0.00000001
 43
0.00000001
 40
0.0
 40
0.0
 40
0.0
 40
0.0
 40
1.0
 40
1.0
 40
1.0
 40
2.0
 40
2.0
 40
2.0
 40
3.0
 40
3.0
 40
3.0
 40
4.0
 40
4.0
 40
4.0
 40
4.0
 10
172.44769965277777
 20
98.247577582465269
 30
0.0
 10
172.68920084635414
 20
98.404329427083326
 30
0.0
 10
172.82769368489582
 20
98.678903537326377
 30
0.0
 10
172.81012369791665
 20
98.966224500868051
 30
0.0
 10
172.73192003038193
 20
99.343117947048597
 30
0.0
 10
172.39051106770833
 20
99.606667751736097
 30
0.0
 10
172.00638292100692
 20
99.587030707465274
 30
0.0
 10
171.62983398437498
 20
99.508827039930551
 30
0.0
 10
171.36593967013889
 20
99.167762586805551
 30
0.0
 10
171.38592122395832
 20
98.783634440104152
 30
0.0
 10
171.55920952690971
 20
98.367466905381931
 30
0.0
 10
172.01017252604166
 20
98.139746093749991
 30
0.0
 10
172.44769965277777
 20
98.247577582465269
 30
0.0
  0
SPLINE
  5
AC
100
AcDbEntity
  8
LAYER_1
 62
     7
100
AcDbSpline
210
0.0
220
0.0
230
1.0
 70
     8
 71
     3
 72
    17
 73
    13
 74
     0
 42
0.00000001
 43
0.00000001
 40
0.0
 40
0.0
 40
0.0
 40
0.0
 40
1.0
 40
1.0
 40
1.0
 40
2.0
 40
2.0
 40
2.0
 40
3.0
 40
3.0
 40
3.0
 40
4.0
 40
4.0
 40
4.0
 40
4.0
 10
163.22483452690972
 20
98.247577582465269
 30
0.0
 10
163.46599121093749
 20
98.404329427083326
 30
0.0
 10
163.60448404947914
 20
98.678903537326377
 30
0.0
 10
163.5872585720486
 20
98.966224500868051
 30
0.0
 10
163.50905490451387
 20
99.343117947048597
 30
0.0
 10
163.16764594184028
 20
99.606667751736097
 30
0.0
 10
162.78351779513886
 20
99.587030707465274
 30
0.0
 10
162.40662434895833
 20
99.508827039930551
 30
0.0
 10
162.14307454427083
 20
99.167762586805551
 30
0.0
 10
162.16271158854164
 20
98.783634440104152
 30
0.0
 10
162.33599989149303
 20
98.367466905381931
 30
0.0
 10
162.78696289062498
 20
98.139746093749991
 30
0.0
 10
163.22483452690972
 20
98.247577582465269
 30
0.0
  0
SPLINE
  5
AB
100
AcDbEntity
  8
LAYER_1
 62
     7
100
AcDbSpline
210
0.0
220
0.0
230
1.0
 70
     8
 71
     3
 72
    17
 73
    13
 74
     0
 42
0.00000001
 43
0.00000001
 40
0.0
 40
0.0
 40
0.0
 40
0.0
 40
1.0
 40
1.0
 40
1.0
 40
2.0
 40
2.0
 40
2.0
 40
3.0
 40
3.0
 40
3.0
 40
4.0
 40
4.0
 40
4.0
 40
4.0
 10
154.00162489149304
 20
98.247577582465269
 30
0.0
 10
154.24312608506943
 20
98.404329427083326
 30
0.0
 10
154.38161892361109
 20
98.678903537326377
 30
0.0
 10
154.36404893663192
 20
98.966224500868051
 30
0.0
 10
154.28584526909719
 20
99.343117947048597
 30
0.0
 10
153.9444363064236
 20
99.606667751736097
 30
0.0
 10
153.56030815972221
 20
99.587030707465274
 30
0.0
 10
153.18341471354165
 20
99.508827039930551
 30
0.0
 10
152.92020941840278
 20
99.167762586805551
 30
0.0
 10
152.93984646267359
 20
98.783634440104152
 30
0.0
 10
153.11313476562498
 20
98.367466905381931
 30
0.0
 10
153.56375325520833
 20
98.139746093749991
 30
0.0
 10
154.00162489149304
 20
98.247577582465269
 30
0.0
  0
SPLINE
  5
AA
100
AcDbEntity
  8
LAYER_1
 62
     7
100
AcDbSpline
210
0.0
220
0.0
230
1.0
 70
     8
 71
     3
 72
    17
 73
    13
 74
     0
 42
0.00000001
 43
0.00000001
 40
0.0
 40
0.0
 40
0.0
 40
0.0
 40
1.0
 40
1.0
 40
1.0
 40
2.0
 40
2.0
 40
2.0
 40
3.0
 40
3.0
 40
3.0
 40
4.0
 40
4.0
 40
4.0
 40
4.0
 10
139.27521972656248
 20
98.276860894097211
 30
0.0
 10
139.51637641059025
 20
98.433612738715269
 30
0.0
 10
139.65486924913193
 20
98.70818684895832
 30
0.0
 10
139.63729926215277
 20
98.995507812499994
 30
0.0
 10
139.55944010416664
 20
99.37240125868054
 30
0.0
 10
139.21803114149304
 20
99.635606553819429
 30
0.0
 10
138.83390299479166
 20
99.615969509548606
 30
0.0
 10
138.4570095486111
 20
99.538110351562494
 30
0.0
 10
138.1934597439236
 20
99.196701388888883
 30
0.0
 10
138.21309678819443
 20
98.812573242187497
 30
0.0
 10
138.38638509114583
 20
98.396405707465263
 30
0.0
 10
138.83734809027777
 20
98.169029405381934
 30
0.0
 10
139.27521972656248
 20
98.276860894097211
 30
0.0
  0
SPLINE
  5
A9
100
AcDbEntity
  8
LAYER_1
 62
     7
100
AcDbSpline
210
0.0
220
0.0
230
1.0
 70
     8
 71
     3
 72
    20
 73
    16
 74
     0
 42
0.00000001
 43
0.00000001
 40
0.0
 40
0.0
 40
0.0
 40
0.0
 40
1.0
 40
1.0
 40
1.0
 40
2.0
 40
2.0
 40
2.0
 40
3.0
 40
3.0
 40
3.0
 40
4.0
 40
4.0
 40
4.0
 40
5.0
 40
5.0
 40
5.0
 40
5.0
 10
130.05201009114583
 20
98.276860894097211
 30
0.0
 10
130.2935112847222
 20
98.433612738715269
 30
0.0
 10
130.43165961371525
 20
98.70818684895832
 30
0.0
 10
130.41443413628471
 20
98.995507812499994
 30
0.0
 10
130.36379123263887
 20
99.351730685763883
 30
0.0
 10
130.06131184895833
 20
99.617347547743051
 30
0.0
 10
129.70164388020831
 20
99.621826171874986
 30
0.0
 10
129.49976128472221
 20
99.608734809027766
 30
0.0
 10
129.31165907118054
 20
99.516406249999989
 30
0.0
 10
129.17833387586805
 20
99.364477539062491
 30
0.0
 10
129.04500868055555
 20
99.212548828124994
 30
0.0
 10
128.97714029947915
 20
99.014111328124997
 30
0.0
 10
128.99023166232638
 20
98.812573242187497
 30
0.0
 10
129.16351996527777
 20
98.396405707465263
 30
0.0
 10
129.61448296440972
 20
98.169029405381934
 30
0.0
 10
130.05201009114583
 20
98.276860894097211
 30
0.0
  0
SPLINE
  5
A8
100
AcDbEntity
  8
LAYER_1
 62
     7
100
AcDbSpline
210
0.0
220
0.0
230
1.0
 70
     8
 71
     3
 72
    23
 73
    19
 74
     0
 42
0.00000001
 43
0.00000001
 40
0.0
 40
0.0
 40
0.0
 40
0.0
 40
1.0
 40
1.0
 40
1.0
 40
2.0
 40
2.0
 40
2.0
 40
3.0
 40
3.0
 40
3.0
 40
4.0
 40
4.0
 40
4.0
 40
5.0
 40
5.0
 40
5.0
 40
6.0
 40
6.0
 40
6.0
 40
6.0
 10
111.6059353298611
 20
98.276860894097211
 30
0.0
 10
111.83262261284722
 20
98.404329427083326
 30
0.0
 10
111.97283799913194
 20
98.644108072916652
 30
0.0
 10
111.97352701822916
 20
98.904212782118051
 30
0.0
 10
111.97352701822916
 20
99.094382052951374
 30
0.0
 10
111.89773491753471
 20
99.276972113715274
 30
0.0
 10
111.76303168402777
 20
99.411675347222214
 30
0.0
 10
111.62867296006944
 20
99.546378580729154
 30
0.0
 10
111.44608289930555
 20
99.621826171874986
 30
0.0
 10
111.2555691189236
 20
99.621826171874986
 30
0.0
 10
111.05368652343749
 20
99.608734809027766
 30
0.0
 10
110.86558430989582
 20
99.516406249999989
 30
0.0
 10
110.73225911458333
 20
99.364477539062491
 30
0.0
 10
110.59858940972221
 20
99.212548828124994
 30
0.0
 10
110.53106553819444
 20
99.014111328124997
 30
0.0
 10
110.54415690104166
 20
98.812573242187497
 30
0.0
 10
110.71744520399305
 20
98.396405707465263
 30
0.0
 10
111.16840820312498
 20
98.169029405381934
 30
0.0
 10
111.6059353298611
 20
98.276860894097211
 30
0.0
  0
SPLINE
  5
A7
100
AcDbEntity
  8
LAYER_1
 62
     7
100
AcDbSpline
210
0.0
220
0.0
230
1.0
 70
     8
 71
     3
 72
    17
 73
    13
 74
     0
 42
0.00000001
 43
0.00000001
 40
0.0
 40
0.0
 40
0.0
 40
0.0
 40
1.0
 40
1.0
 40
1.0
 40
2.0
 40
2.0
 40
2.0
 40
3.0
 40
3.0
 40
3.0
 40
4.0
 40
4.0
 40
4.0
 40
4.0
 10
102.38289794921874
 20
98.276860894097211
 30
0.0
 10
102.62422688802083
 20
98.433612738715269
 30
0.0
 10
102.76271972656249
 20
98.70818684895832
 30
0.0
 10
102.74532199435762
 20
98.995507812499994
 30
0.0
 10
102.6671183268229
 20
99.37240125868054
 30
0.0
 10
102.3258816189236
 20
99.635606553819429
 30
0.0
 10
101.9415812174479
 20
99.615969509548606
 30
0.0
 10
101.56486002604166
 20
99.538110351562494
 30
0.0
 10
101.30131022135416
 20
99.196701388888883
 30
0.0
 10
101.32094726562499
 20
98.812573242187497
 30
0.0
 10
101.49440782335068
 20
98.396405707465263
 30
0.0
 10
101.94519856770832
 20
98.169029405381934
 30
0.0
 10
102.38289794921874
 20
98.276860894097211
 30
0.0
  0
SPLINE
  5
A6
100
AcDbEntity
  8
LAYER_1
 62
     7
100
AcDbSpline
210
0.0
220
0.0
230
1.0
 70
     8
 71
     3
 72
    17
 73
    13
 74
     0
 42
0.00000001
 43
0.00000001
 40
0.0
 40
0.0
 40
0.0
 40
0.0
 40
1.0
 40
1.0
 40
1.0
 40
2.0
 40
2.0
 40
2.0
 40
3.0
 40
3.0
 40
3.0
 40
4.0
 40
4.0
 40
4.0
 40
4.0
 10
93.159860568576377
 20
98.276860894097211
 30
0.0
 10
93.401361762152774
 20
98.433612738715269
 30
0.0
 10
93.539682345920127
 20
98.70818684895832
 30
0.0
 10
93.522284613715271
 20
98.995507812499994
 30
0.0
 10
93.444080946180549
 20
99.37240125868054
 30
0.0
 10
93.102844238281236
 20
99.635606553819429
 30
0.0
 10
92.718543836805551
 20
99.615969509548606
 30
0.0
 10
92.34182264539929
 20
99.538110351562494
 30
0.0
 10
92.07827284071179
 20
99.196701388888883
 30
0.0
 10
92.097909884982627
 20
98.812573242187497
 30
0.0
 10
92.271370442708331
 20
98.396405707465263
 30
0.0
 10
92.722161187065964
 20
98.169029405381934
 30
0.0
 10
93.159860568576377
 20
98.276860894097211
 30
0.0
  0
SPLINE
  5
A5
100
AcDbEntity
  8
LAYER_1
 62
     7
100
AcDbSpline
210
0.0
220
0.0
230
1.0
 70
     8
 71
     3
 72
    17
 73
    13
 74
     0
 42
0.00000001
 43
0.00000001
 40
0.0
 40
0.0
 40
0.0
 40
0.0
 40
1.0
 40
1.0
 40
1.0
 40
2.0
 40
2.0
 40
2.0
 40
3.0
 40
3.0
 40
3.0
 40
4.0
 40
4.0
 40
4.0
 40
4.0
 10
83.936823187934024
 20
98.276860894097211
 30
0.0
 10
84.178152126736109
 20
98.433612738715269
 30
0.0
 10
84.316644965277774
 20
98.70818684895832
 30
0.0
 10
84.299247233072904
 20
98.995507812499994
 30
0.0
 10
84.221043565538181
 20
99.37240125868054
 30
0.0
 10
83.879806857638883
 20
99.635606553819429
 30
0.0
 10
83.495506456163184
 20
99.615969509548606
 30
0.0
 10
83.118268500434027
 20
99.538454861111106
 30
0.0
 10
82.854374186197916
 20
99.197045898437494
 30
0.0
 10
82.873666720920127
 20
98.812573242187497
 30
0.0
 10
83.04729953342013
 20
98.396061197916652
 30
0.0
 10
83.498951551649299
 20
98.168684895833323
 30
0.0
 10
83.936823187934024
 20
98.276860894097211
 30
0.0
  0
SPLINE
  5
A4
100
AcDbEntity
  8
LAYER_1
 62
     7
100
AcDbSpline
210
0.0
220
0.0
230
1.0
 70
     8
 71
     3
 72
    17
 73
    13
 74
     0
 42
0.00000001
 43
0.00000001
 40
0.0
 40
0.0
 40
0.0
 40
0.0
 40
1.0
 40
1.0
 40
1.0
 40
2.0
 40
2.0
 40
2.0
 40
3.0
 40
3.0
 40
3.0
 40
4.0
 40
4.0
 40
4.0
 40
4.0
 10
77.278831651475684
 20
102.25146755642361
 30
0.0
 10
77.354968261718739
 20
102.32002495659721
 30
0.0
 10
77.39889322916666
 20
102.41752115885416
 30
0.0
 10
77.400099012586793
 20
102.52018500434026
 30
0.0
 10
77.39837646484375
 20
102.71793348524305
 30
0.0
 10
77.238179524739579
 20
102.8777859157986
 30
0.0
 10
77.040431043836804
 20
102.87916395399304
 30
0.0
 10
76.842854817708329
 20
102.87744140624999
 30
0.0
 10
76.683174641927081
 20
102.71758897569444
 30
0.0
 10
76.681968858506934
 20
102.52018500434026
 30
0.0
 10
76.774125162760413
 20
102.28247341579861
 30
0.0
 10
77.03991427951388
 20
102.16292860243054
 30
0.0
 10
77.278831651475684
 20
102.25146755642361
 30
0.0
  0
SPLINE
  5
A3
100
AcDbEntity
  8
LAYER_1
 62
     7
100
AcDbSpline
210
0.0
220
0.0
230
1.0
 70
     8
 71
     3
 72
    17
 73
    13
 74
     0
 42
0.00000001
 43
0.00000001
 40
0.0
 40
0.0
 40
0.0
 40
0.0
 40
1.0
 40
1.0
 40
1.0
 40
2.0
 40
2.0
 40
2.0
 40
3.0
 40
3.0
 40
3.0
 40
4.0
 40
4.0
 40
4.0
 40
4.0
 10
71.597696940104157
 20
103.99778645833332
 30
0.0
 10
71.674005805121524
 20
104.06668836805555
 30
0.0
 10
71.717930772569431
 20
104.16384006076387
 30
0.0
 10
71.718964301215266
 20
104.26650390624999
 30
0.0
 10
71.717414008246521
 20
104.46425238715277
 30
0.0
 10
71.557044813368051
 20
104.62444932725694
 30
0.0
 10
71.359296332465277
 20
104.62548285590277
 30
0.0
 10
71.161720106336801
 20
104.62410481770833
 30
0.0
 10
71.002212185329853
 20
104.46390787760416
 30
0.0
 10
71.00100640190972
 20
104.26650390624999
 30
0.0
 10
71.092990451388886
 20
104.02879231770832
 30
0.0
 10
71.358779568142353
 20
103.90924750434027
 30
0.0
 10
71.597696940104157
 20
103.99778645833332
 30
0.0
  0
SPLINE
  5
A2
100
AcDbEntity
  8
LAYER_1
 62
     7
100
AcDbSpline
210
0.0
220
0.0
230
1.0
 70
     8
 71
     3
 72
    17
 73
    13
 74
     0
 42
0.00000001
 43
0.00000001
 40
0.0
 40
0.0
 40
0.0
 40
0.0
 40
1.0
 40
1.0
 40
1.0
 40
2.0
 40
2.0
 40
2.0
 40
3.0
 40
3.0
 40
3.0
 40
4.0
 40
4.0
 40
4.0
 40
4.0
 10
79.355707465277774
 20
107.70402018229166
 30
0.0
 10
79.431499565972217
 20
107.77292209201389
 30
0.0
 10
79.474907769097214
 20
107.87041829427082
 30
0.0
 10
79.475596788194437
 20
107.97273763020833
 30
0.0
 10
79.474391004774304
 20
108.17014160156249
 30
0.0
 10
79.314710828993043
 20
108.32999403211805
 30
0.0
 10
79.11730685763888
 20
108.33171657986109
 30
0.0
 10
78.919386121961793
 20
108.33033854166666
 30
0.0
 10
78.759189181857636
 20
108.1704861111111
 30
0.0
 10
78.757638888888877
 20
107.97273763020833
 30
0.0
 10
78.850139702690967
 20
107.73468153211805
 30
0.0
 10
79.116445583767359
 20
107.61513671874999
 30
0.0
 10
79.355707465277774
 20
107.70402018229166
 30
0.0
  0
POLYLINE
  5
9D
100
AcDbEntity
  8
LAYER_1
 62
     7
100
AcDb2dPolyline
 66
     1
 10
0.0
 20
0.0
 30
0.0
  0
VERTEX
  5
9E
100
AcDbEntity
  8
LAYER_1
 62
     7
100
AcDbVertex
100
AcDb2dVertex
 10
135.292
 20
98.316479
 30
0.0
  0
VERTEX
  5
9F
100
AcDbEntity
  8
LAYER_1
 62
     7
100
AcDbVertex
100
AcDb2dVertex
 10
128.542025
 20
110.135569
 30
0.0
  0
VERTEX
  5
A0
100
AcDbEntity
  8
LAYER_1
 62
     7
100
AcDbVertex
100
AcDb2dVertex
 10
127.127124
 20
110.135569
 30
0.0
  0
SEQEND
  5
A1
100
AcDbEntity
  8
LAYER_1
 62
     7
  0
POLYLINE
  5
98
100
AcDbEntity
  8
LAYER_1
 62
     7
100
AcDb2dPolyline
 66
     1
 10
0.0
 20
0.0
 30
0.0
  0
VERTEX
  5
99
100
AcDbEntity
  8
LAYER_1
 62
     7
100
AcDbVertex
100
AcDb2dVertex
 10
145.896004
 20
101.686127
 30
0.0
  0
VERTEX
  5
9A
100
AcDbEntity
  8
LAYER_1
 62
     7
100
AcDbVertex
100
AcDb2dVertex
 10
139.146029
 20
113.505561
 30
0.0
  0
VERTEX
  5
9B
100
AcDbEntity
  8
LAYER_1
 62
     7
100
AcDbVertex
100
AcDb2dVertex
 10
137.730783
 20
113.505561
 30
0.0
  0
SEQEND
  5
9C
100
AcDbEntity
  8
LAYER_1
 62
     7
  0
LINE
  5
97
100
AcDbEntity
  8
LAYER_1
 62
     7
100
AcDbLine
 10
69.897542
 20
99.076123
 30
0.0
 11
69.897542
 21
85.885541
 31
0.0
  0
POLYLINE
  5
92
100
AcDbEntity
  8
LAYER_1
 62
     7
100
AcDb2dPolyline
 66
     1
 10
0.0
 20
0.0
 30
0.0
  0
VERTEX
  5
93
100
AcDbEntity
  8
LAYER_1
 62
     7
100
AcDbVertex
100
AcDb2dVertex
 10
76.996506
 20
100.238154
 30
0.0
  0
VERTEX
  5
94
100
AcDbEntity
  8
LAYER_1
 62
     7
100
AcDbVertex
100
AcDb2dVertex
 10
76.996506
 20
85.885541
 30
0.0
  0
VERTEX
  5
95
100
AcDbEntity
  8
LAYER_1
 62
     7
100
AcDbVertex
100
AcDb2dVertex
 10
69.982292
 20
85.885541
 30
0.0
  0
SEQEND
  5
96
100
AcDbEntity
  8
LAYER_1
 62
     7
  0
LINE
  5
91
100
AcDbEntity
  8
LAYER_1
 62
     7
100
AcDbLine
 10
77.020622
 20
105.977683
 30
0.0
 11
77.020622
 21
100.509627
 31
0.0
  0
POLYLINE
  5
87
100
AcDbEntity
  8
LAYER_1
 62
     7
100
AcDb2dPolyline
 66
     1
 10
0.0
 20
0.0
 30
0.0
 70
     1
  0
VERTEX
  5
88
100
AcDbEntity
  8
LAYER_1
 62
     7
100
AcDbVertex
100
AcDb2dVertex
 10
78.809488
 20
108.540834
 30
0.0
  0
VERTEX
  5
89
100
AcDbEntity
  8
LAYER_1
 62
     7
100
AcDbVertex
100
AcDb2dVertex
 10
78.80811
 20
105.304511
 30
0.0
  0
VERTEX
  5
8A
100
AcDbEntity
  8
LAYER_1
 62
     7
100
AcDbVertex
100
AcDb2dVertex
 10
75.052955
 20
105.304511
 30
0.0
  0
VERTEX
  5
8B
100
AcDbEntity
  8
LAYER_1
 62
     7
100
AcDbVertex
100
AcDb2dVertex
 10
75.052955
 20
108.540834
 30
0.0
  0
VERTEX
  5
8C
100
AcDbEntity
  8
LAYER_1
 62
     7
100
AcDbVertex
100
AcDb2dVertex
 10
75.483765
 20
108.540834
 30
0.0
  0
VERTEX
  5
8D
100
AcDbEntity
  8
LAYER_1
 62
     7
100
AcDbVertex
100
AcDb2dVertex
 10
75.483765
 20
105.734804
 30
0.0
  0
VERTEX
  5
8E
100
AcDbEntity
  8
LAYER_1
 62
     7
100
AcDbVertex
100
AcDb2dVertex
 10
78.378506
 20
105.734804
 30
0.0
  0
VERTEX
  5
8F
100
AcDbEntity
  8
LAYER_1
 62
     7
100
AcDbVertex
100
AcDb2dVertex
 10
78.378506
 20
108.540834
 30
0.0
  0
SEQEND
  5
90
100
AcDbEntity
  8
LAYER_1
 62
     7
  0
LINE
  5
86
100
AcDbEntity
  8
LAYER_1
 62
     7
100
AcDbLine
 10
160.224501
 20
104.543834
 30
0.0
 11
170.605607
 21
94.167206
 31
0.0
  0
LINE
  5
85
100
AcDbEntity
  8
LAYER_1
 62
     7
100
AcDbLine
 10
158.853008
 20
104.597578
 30
0.0
 11
169.284068
 21
94.170652
 31
0.0
  0
LINE
  5
84
100
AcDbEntity
  8
LAYER_1
 62
     7
100
AcDbLine
 10
157.671341
 20
104.461841
 30
0.0
 11
167.952195
 21
94.186155
 31
0.0
  0
LINE
  5
83
100
AcDbEntity
  8
LAYER_1
 62
     7
100
AcDbLine
 10
133.872965
 20
104.543834
 30
0.0
 11
144.18827
 21
94.186155
 31
0.0
  0
LINE
  5
82
100
AcDbEntity
  8
LAYER_1
 62
     7
100
AcDbLine
 10
132.501473
 20
104.597578
 30
0.0
 11
142.866732
 21
94.1896
 31
0.0
  0
LINE
  5
81
100
AcDbEntity
  8
LAYER_1
 62
     7
100
AcDbLine
 10
131.319461
 20
104.461841
 30
0.0
 11
141.534858
 21
94.204758
 31
0.0
  0
LINE
  5
80
100
AcDbEntity
  8
LAYER_1
 62
     7
100
AcDbLine
 10
107.520052
 20
104.543834
 30
0.0
 11
117.86843
 21
94.215093
 31
0.0
  0
LINE
  5
7F
100
AcDbEntity
  8
LAYER_1
 62
     7
100
AcDbLine
 10
106.149938
 20
104.597578
 30
0.0
 11
116.546891
 21
94.218538
 31
0.0
  0
LINE
  5
7E
100
AcDbEntity
  8
LAYER_1
 62
     7
100
AcDbLine
 10
104.967925
 20
104.461841
 30
0.0
 11
115.213639
 21
94.233697
 31
0.0
  0
LINE
  5
7D
100
AcDbEntity
  8
LAYER_1
 62
     7
100
AcDbLine
 10
81.168689
 20
104.543834
 30
0.0
 11
91.489334
 21
94.215093
 31
0.0
  0
LINE
  5
7C
100
AcDbEntity
  8
LAYER_1
 62
     7
100
AcDbLine
 10
79.797024
 20
104.597578
 30
0.0
 11
90.169001
 21
94.218538
 31
0.0
  0
LINE
  5
7B
100
AcDbEntity
  8
LAYER_1
 62
     7
100
AcDbLine
 10
147.463867
 20
104.525231
 30
0.0
 11
144.853863
 21
101.915226
 31
0.0
  0
LINE
  5
7A
100
AcDbEntity
  8
LAYER_1
 62
     7
100
AcDbLine
 10
145.394054
 20
104.492502
 30
0.0
 11
147.97133
 21
101.915226
 31
0.0
  0
LINE
  5
79
100
AcDbEntity
  8
LAYER_1
 62
     7
100
AcDbLine
 10
148.021284
 20
102.44646
 30
0.0
 11
144.853863
 21
99.280073
 31
0.0
  0
LINE
  5
78
100
AcDbEntity
  8
LAYER_1
 62
     7
100
AcDbLine
 10
144.804942
 20
102.44646
 30
0.0
 11
147.97133
 21
99.280073
 31
0.0
  0
LINE
  5
77
100
AcDbEntity
  8
LAYER_1
 62
     7
100
AcDbLine
 10
148.021284
 20
99.811651
 30
0.0
 11
144.853863
 21
96.645264
 31
0.0
  0
LINE
  5
76
100
AcDbEntity
  8
LAYER_1
 62
     7
100
AcDbLine
 10
144.804942
 20
99.811651
 30
0.0
 11
147.97133
 21
96.645264
 31
0.0
  0
LINE
  5
75
100
AcDbEntity
  8
LAYER_1
 62
     7
100
AcDbLine
 10
148.021284
 20
97.176153
 30
0.0
 11
145.146351
 21
94.302599
 31
0.0
  0
LINE
  5
74
100
AcDbEntity
  8
LAYER_1
 62
     7
100
AcDbLine
 10
144.804942
 20
97.176153
 30
0.0
 11
147.676085
 21
94.304666
 31
0.0
  0
LINE
  5
73
100
AcDbEntity
  8
LAYER_1
 62
     7
100
AcDbLine
 10
78.615184
 20
104.461841
 30
0.0
 11
88.854008
 21
94.215782
 31
0.0
  0
LINE
  5
72
100
AcDbEntity
  8
LAYER_1
 62
     7
100
AcDbLine
 10
79.815455
 20
200.397587
 30
0.0
 11
73.36727
 21
206.84715
 31
0.0
  0
LINE
  5
71
100
AcDbEntity
  8
LAYER_1
 62
     7
100
AcDbLine
 10
79.931555
 20
201.599236
 30
0.0
 11
74.76908
 21
206.761367
 31
0.0
  0
LINE
  5
70
100
AcDbEntity
  8
LAYER_1
 62
     7
100
AcDbLine
 10
79.907784
 20
202.940584
 30
0.0
 11
76.214642
 21
206.634932
 31
0.0
  0
LINE
  5
6F
100
AcDbEntity
  8
LAYER_1
 62
     7
100
AcDbLine
 10
69.783337
 20
184.077998
 30
0.0
 11
47.695624
 21
206.165883
 31
0.0
  0
LINE
  5
6E
100
AcDbEntity
  8
LAYER_1
 62
     7
100
AcDbLine
 10
71.124685
 20
184.054226
 30
0.0
 11
47.731281
 21
207.447975
 31
0.0
  0
LINE
  5
6D
100
AcDbEntity
  8
LAYER_1
 62
     7
100
AcDbLine
 10
72.160453
 20
184.336207
 30
0.0
 11
47.758842
 21
208.737819
 31
0.0
  0
LINE
  5
6C
100
AcDbEntity
  8
LAYER_1
 62
     7
100
AcDbLine
 10
68.040291
 20
159.469853
 30
0.0
 11
41.745428
 21
185.764544
 31
0.0
  0
LINE
  5
6B
100
AcDbEntity
  8
LAYER_1
 62
     7
100
AcDbLine
 10
68.002051
 20
160.826015
 30
0.0
 11
41.745428
 21
187.082121
 31
0.0
  0
LINE
  5
6A
100
AcDbEntity
  8
LAYER_1
 62
     7
100
AcDbLine
 10
67.991543
 20
162.153065
 30
0.0
 11
41.745428
 21
188.399698
 31
0.0
  0
LINE
  5
69
100
AcDbEntity
  8
LAYER_1
 62
     7
100
AcDbLine
 10
68.040291
 20
133.118145
 30
0.0
 11
41.745428
 21
159.412492
 31
0.0
  0
LINE
  5
68
100
AcDbEntity
  8
LAYER_1
 62
     7
100
AcDbLine
 10
68.002051
 20
134.474479
 30
0.0
 11
41.745428
 21
160.730069
 31
0.0
  0
LINE
  5
67
100
AcDbEntity
  8
LAYER_1
 62
     7
100
AcDbLine
 10
67.991543
 20
135.801185
 30
0.0
 11
41.745428
 21
162.047818
 31
0.0
  0
LINE
  5
66
100
AcDbEntity
  8
LAYER_1
 62
     7
100
AcDbLine
 10
68.040291
 20
106.76661
 30
0.0
 11
41.745428
 21
133.060612
 31
0.0
  0
LINE
  5
65
100
AcDbEntity
  8
LAYER_1
 62
     7
100
AcDbLine
 10
68.002051
 20
108.122599
 30
0.0
 11
41.745428
 21
134.378361
 31
0.0
  0
LINE
  5
64
100
AcDbEntity
  8
LAYER_1
 62
     7
100
AcDbLine
 10
67.991543
 20
109.44965
 30
0.0
 11
41.745428
 21
135.695766
 31
0.0
  0
LINE
  5
63
100
AcDbEntity
  8
LAYER_1
 62
     7
100
AcDbLine
 10
54.499516
 20
67.603453
 30
0.0
 11
41.745428
 21
80.357541
 31
0.0
  0
LINE
  5
62
100
AcDbEntity
  8
LAYER_1
 62
     7
100
AcDbLine
 10
55.855333
 20
67.564868
 30
0.0
 11
41.745428
 21
81.674946
 31
0.0
  0
LINE
  5
61
100
AcDbEntity
  8
LAYER_1
 62
     7
100
AcDbLine
 10
57.153101
 20
67.58485
 30
0.0
 11
41.745428
 21
82.99235
 31
0.0
  0
LINE
  5
60
100
AcDbEntity
  8
LAYER_1
 62
     7
100
AcDbLine
 10
186.635292
 20
67.428098
 30
0.0
 11
162.286735
 21
91.77631
 31
0.0
  0
LINE
  5
5F
100
AcDbEntity
  8
LAYER_1
 62
     7
100
AcDbLine
 10
186.644594
 20
68.735856
 30
0.0
 11
163.613441
 21
91.767008
 31
0.0
  0
LINE
  5
5E
100
AcDbEntity
  8
LAYER_1
 62
     7
100
AcDbLine
 10
186.684212
 20
70.014676
 30
0.0
 11
164.911209
 21
91.786646
 31
0.0
  0
LINE
  5
5D
100
AcDbEntity
  8
LAYER_1
 62
     7
100
AcDbLine
 10
160.082218
 20
67.428098
 30
0.0
 11
135.733317
 21
91.77631
 31
0.0
  0
LINE
  5
5C
100
AcDbEntity
  8
LAYER_1
 62
     7
100
AcDbLine
 10
161.360349
 20
67.467027
 30
0.0
 11
137.060368
 21
91.767008
 31
0.0
  0
LINE
  5
5B
100
AcDbEntity
  8
LAYER_1
 62
     7
100
AcDbLine
 10
162.871712
 20
67.273758
 30
0.0
 11
138.358135
 21
91.786646
 31
0.0
  0
LINE
  5
5A
100
AcDbEntity
  8
LAYER_1
 62
     7
100
AcDbLine
 10
111.312069
 20
89.845679
 30
0.0
 11
109.381782
 21
91.77631
 31
0.0
  0
LINE
  5
59
100
AcDbEntity
  8
LAYER_1
 62
     7
100
AcDbLine
 10
133.838859
 20
67.318888
 30
0.0
 11
111.312069
 21
89.845679
 31
0.0
  0
LINE
  5
58
100
AcDbEntity
  8
LAYER_1
 62
     7
100
AcDbLine
 10
112.668058
 20
89.807438
 30
0.0
 11
110.708832
 21
91.767008
 31
0.0
  0
LINE
  5
57
100
AcDbEntity
  8
LAYER_1
 62
     7
100
AcDbLine
 10
135.024661
 20
67.451525
 30
0.0
 11
112.668058
 21
89.807438
 31
0.0
  0
LINE
  5
56
100
AcDbEntity
  8
LAYER_1
 62
     7
100
AcDbLine
 10
114.025081
 20
89.768853
 30
0.0
 11
112.0066
 21
91.786646
 31
0.0
  0
LINE
  5
55
100
AcDbEntity
  8
LAYER_1
 62
     7
100
AcDbLine
 10
136.318639
 20
67.475296
 30
0.0
 11
114.025081
 21
89.768853
 31
0.0
  0
LINE
  5
54
100
AcDbEntity
  8
LAYER_1
 62
     7
100
AcDbLine
 10
87.950187
 20
86.857058
 30
0.0
 11
83.030419
 21
91.77631
 31
0.0
  0
LINE
  5
53
100
AcDbEntity
  8
LAYER_1
 62
     7
100
AcDbLine
 10
107.487324
 20
67.318888
 30
0.0
 11
87.950187
 21
86.857058
 31
0.0
  0
LINE
  5
52
100
AcDbEntity
  8
LAYER_1
 62
     7
100
AcDbLine
 10
89.306005
 20
86.818473
 30
0.0
 11
84.357125
 21
91.767008
 31
0.0
  0
LINE
  5
51
100
AcDbEntity
  8
LAYER_1
 62
     7
100
AcDbLine
 10
108.673126
 20
67.451525
 30
0.0
 11
89.306005
 21
86.818473
 31
0.0
  0
LINE
  5
50
100
AcDbEntity
  8
LAYER_1
 62
     7
100
AcDbLine
 10
90.622203
 20
86.818818
 30
0.0
 11
85.655065
 21
91.786646
 31
0.0
  0
LINE
  5
4F
100
AcDbEntity
  8
LAYER_1
 62
     7
100
AcDbLine
 10
109.967103
 20
67.475296
 30
0.0
 11
90.622203
 21
86.818818
 31
0.0
  0
LINE
  5
4E
100
AcDbEntity
  8
LAYER_1
 62
     7
100
AcDbLine
 10
80.922365
 20
67.53214
 30
0.0
 11
41.745428
 21
106.709077
 31
0.0
  0
LINE
  5
4D
100
AcDbEntity
  8
LAYER_1
 62
     7
100
AcDbLine
 10
82.279388
 20
67.493555
 30
0.0
 11
41.745428
 21
108.026826
 31
0.0
  0
LINE
  5
4C
100
AcDbEntity
  8
LAYER_1
 62
     7
100
AcDbLine
 10
83.61419
 20
67.475296
 30
0.0
 11
41.745428
 21
109.34423
 31
0.0
  0
LINE
  5
4B
100
AcDbEntity
  8
LAYER_1
 62
     7
100
AcDbLine
 10
117.714434
 20
98.178676
 30
0.0
 11
77.449192
 21
98.178676
 31
0.0
  0
LINE
  5
4A
100
AcDbEntity
  8
LAYER_1
 62
     7
100
AcDbLine
 10
143.695622
 20
98.178676
 30
0.0
 11
122.362557
 21
98.178676
 31
0.0
  0
LINE
  5
49
100
AcDbEntity
  8
LAYER_1
 62
     7
100
AcDbLine
 10
186.611865
 20
98.12631
 30
0.0
 11
149.272887
 21
98.12631
 31
0.0
  0
LINE
  5
48
100
AcDbEntity
  8
LAYER_1
 62
     7
100
AcDbLine
 10
89.00163
 20
104.50077
 30
0.0
 11
70.055844
 21
104.50077
 31
0.0
  0
LINE
  5
47
100
AcDbEntity
  8
LAYER_1
 62
     7
100
AcDbLine
 10
186.610487
 20
94.236453
 30
0.0
 11
77.434722
 21
94.236453
 31
0.0
  0
LINE
  5
46
100
AcDbEntity
  8
LAYER_1
 62
     7
100
AcDbLine
 10
186.610487
 20
104.50077
 30
0.0
 11
92.875296
 21
104.50077
 31
0.0
  0
SPLINE
  5
45
100
AcDbEntity
  8
LAYER_1
 62
     7
100
AcDbSpline
210
0.0
220
0.0
230
1.0
 70
     8
 71
     3
 72
    26
 73
    22
 74
     0
 42
0.00000001
 43
0.00000001
 40
0.0
 40
0.0
 40
0.0
 40
0.0
 40
1.0
 40
1.0
 40
1.0
 40
2.0
 40
2.0
 40
2.0
 40
3.0
 40
3.0
 40
3.0
 40
4.0
 40
4.0
 40
4.0
 40
5.0
 40
5.0
 40
5.0
 40
6.0
 40
6.0
 40
6.0
 40
7.0
 40
7.0
 40
7.0
 40
7.0
 10
186.61289876302081
 20
93.733813476562489
 30
0.0
 10
186.61289876302081
 20
93.733813476562489
 30
0.0
 10
74.212007649739576
 20
93.733813476562489
 30
0.0
 10
74.212007649739576
 20
93.733813476562489
 30
0.0
 10
74.212007649739576
 20
93.733813476562489
 30
0.0
 10
69.883589680989573
 20
98.160416666666663
 30
0.0
 10
69.883589680989573
 20
98.160416666666663
 30
0.0
 10
69.883589680989573
 20
98.160416666666663
 30
0.0
 10
69.848105197482639
 20
160.76296929253471
 30
0.0
 10
69.848105197482639
 20
160.76296929253471
 30
0.0
 10
69.560439724392353
 20
161.43131781684028
 30
0.0
 10
68.88055013020832
 20
161.84386800130207
 30
0.0
 10
68.154840766059024
 20
161.78995225694442
 30
0.0
 10
68.154840766059024
 20
161.78995225694442
 30
0.0
 10
68.16155870225694
 20
97.447626410590274
 30
0.0
 10
68.16155870225694
 20
97.447626410590274
 30
0.0
 10
68.16155870225694
 20
97.447626410590274
 30
0.0
 10
73.583622233072916
 20
92.010576714409709
 30
0.0
 10
73.583622233072916
 20
92.010576714409709
 30
0.0
 10
73.583622233072916
 20
92.010576714409709
 30
0.0
 10
186.61289876302081
 20
92.010576714409709
 30
0.0
 10
186.61289876302081
 20
92.010576714409709
 30
0.0
  0
INSERT
  5
33
100
AcDbEntity
  8
LAYER_1
 62
     7
100
AcDbBlockReference
  2
AI9-BLK1
 10
70.974049
 20
100.517723
 30
0.0
  0
POLYLINE
  5
2A
100
AcDbEntity
  8
レイヤー_1
 62
     7
100
AcDb2dPolyline
 66
     1
 10
0.0
 20
0.0
 30
0.0
 70
     1
  0
VERTEX
  5
2B
100
AcDbEntity
  8
レイヤー_1
 62
     7
100
AcDbVertex
100
AcDb2dVertex
 10
117.056765
 20
232.115375
 30
0.0
  0
VERTEX
  5
2C
100
AcDbEntity
  8
レイヤー_1
 62
     7
100
AcDbVertex
100
AcDb2dVertex
 10
117.056765
 20
242.59949
 30
0.0
  0
VERTEX
  5
2D
100
AcDbEntity
  8
レイヤー_1
 62
     7
100
AcDbVertex
100
AcDb2dVertex
 10
9.353434
 20
242.59949
 30
0.0
  0
VERTEX
  5
2E
100
AcDbEntity
  8
レイヤー_1
 62
     7
100
AcDbVertex
100
AcDb2dVertex
 10
9.353434
 20
232.115375
 30
0.0
  0
SEQEND
  5
2F
100
AcDbEntity
  8
レイヤー_1
 62
     7
  0
MTEXT
  5
29
100
AcDbEntity
  8
レイヤー_1
 62
     7
100
AcDbMText
 10
13.59917
 20
240.308231
 30
0.0
 40
5.224734
 41
0.0
 71
     1
 72
     2
  1
\W0.50;\fMS Gothic|b0|i0|c128;■乾式保護工法標準納まり詳細図
  7
KANJISTD
210
0.0
220
0.0
230
1.0
 11
1.000001
 21
0.0
 31
0.0
 73
     1
 44
1.0
  0
ENDSEC
  0
SECTION
  2
OBJECTS
  0
DICTIONARY
  5
19
100
AcDbDictionary
280
     0
281
     1
  3
ACAD_GROUP
350
1A
  3
ACAD_MLINESTYLE
350
1B
  3
ACAD_LAYOUT
350
1E
  3
ACAD_PLOTSETTINGS
350
22
  3
ACAD_PLOTSTYLENAME
350
1F
  3
ACAD_WIPEOUT_VARS
350
23
  0
DICTIONARY
  5
1A
102
{ACAD_REACTORS
330
19
102
}
100
AcDbDictionary
280
     0
281
     1
  0
DICTIONARY
  5
1B
102
{ACAD_REACTORS
330
19
102
}
100
AcDbDictionary
280
     0
281
     1
  3
Standard
350
1C
  0
MLINESTYLE
  5
1C
102
{ACAD_REACTORS
330
1B
102
}
100
AcDbMlineStyle
  2
Standard
 70
     0
  3

 62
     0
 51
90.0
 52
90.0
 71
     2
 49
0.5
 62
   256
  6
BYLAYER
 49
-0.5
 62
   256
  6
BYLAYER
  0
ACDBDICTIONARYWDFLT
  5
1F
102
{ACAD_REACTORS
330
19
102
}
100
AcDbDictionary
281
     1
  3
Normal
350
1D
100
AcDbDictionaryWithDefault
340
1D
  0
ACDBPLACEHOLDER
  5
1D
102
{ACAD_REACTORS
330
1F
102
}
  0
LAYOUT
  5
20
102
{ACAD_REACTORS
330
1E
102
}
100
AcDbPlotSettings
  1

  2

  4

  6

 40
0.0
 41
0.0
 42
0.0
 43
0.0
 44
0.0
 45
0.0
 46
0.0
 47
0.0
 48
0.0
 49
0.0
140
0.0
141
0.0
142
1.0
143
1.0
 70
  1024
 72
     0
 73
     0
 74
     0
  7

 75
     0
147
1.0
148
0.0
149
0.0
100
AcDbLayout
  1
Model
 70
     0
 71
     0
 10
0.0
 20
0.0
 11
0.0
 21
0.0
 12
0.0
 22
0.0
 32
0.0
 14
0.0
 24
0.0
 34
0.0
 15
0.0
 25
0.0
 35
0.0
146
0.0
 13
0.0
 23
0.0
 33
0.0
 16
0.0
 26
0.0
 36
0.0
 17
0.0
 27
0.0
 37
0.0
 76
     0
330
A
331
0
345
0
346
0
  0
LAYOUT
  5
21
102
{ACAD_REACTORS
330
1E
102
}
100
AcDbPlotSettings
  1

  2

  4

  6

 40
0.0
 41
0.0
 42
0.0
 43
0.0
 44
0.0
 45
0.0
 46
0.0
 47
0.0
 48
0.0
 49
0.0
140
0.0
141
0.0
142
1.0
143
1.0
 70
     0
 72
     0
 73
     0
 74
     0
  7

 75
     0
147
1.0
148
0.0
149
0.0
100
AcDbLayout
  1
Layout1
 70
     0
 71
     0
 10
0.0
 20
0.0
 11
0.0
 21
0.0
 12
0.0
 22
0.0
 32
0.0
 14
0.0
 24
0.0
 34
0.0
 15
0.0
 25
0.0
 35
0.0
146
0.0
 13
0.0
 23
0.0
 33
0.0
 16
0.0
 26
0.0
 36
0.0
 17
0.0
 27
0.0
 37
0.0
 76
     0
330
B
331
0
345
0
346
0
  0
DICTIONARY
  5
1E
102
{ACAD_REACTORS
330
19
102
}
100
AcDbDictionary
280
     0
281
     1
  3
Layout1
350
21
  3
Model
350
20
  0
DICTIONARY
  5
22
102
{ACAD_REACTORS
330
19
102
}
100
AcDbDictionary
280
     0
281
     1
  0
WIPEOUTVARIABLES
  5
23
100
AcDbWipeoutVariables
 70
     1
  0
ENDSEC
  0
EOF
