  0
SECTION
  2
HEADER
  9
$ACADVER
  1
AC1015
  9
$ACADMAINTVER
 70
     6
  9
$DWGCODEPAGE
  3
ANSI_932
  9
$INSBASE
 10
0.0
 20
0.0
 30
0.0
  9
$EXTMIN
 10
4.938889
 20
71.376522
 30
1.000000E+20
  9
$EXTMAX
 10
203.905556
 20
241.425574
 30
-1.000000E+20
  9
$LIMMIN
 10
4.938889
 20
71.376522
  9
$LIMMAX
 10
203.905556
 20
241.425574
  9
$ORTHOMODE
 70
     0
  9
$REGENMODE
 70
     1
  9
$FILLMODE
 70
     1
  9
$QTEXTMODE
 70
     0
  9
$MIRRTEXT
 70
     1
  9
$LTSCALE
 40
1.0
  9
$ATTMODE
 70
     1
  9
$TEXTSIZE
 40
0.2
  9
$TRACEWID
 40
0.05
  9
$TEXTSTYLE
  7
Standard
  9
$CLAYER
  8
0
  9
$CELTYPE
  6
Continuous
  9
$CECOLOR
 62
   256
  9
$CELTSCALE
 40
1.0
  9
$DISPSILH
 70
     0
  9
$DIMSCALE
 40
1.0
  9
$DIMASZ
 40
0.18
  9
$DIMEXO
 40
0.0625
  9
$DIMDLI
 40
0.38
  9
$DIMRND
 40
0.0
  9
$DIMDLE
 40
0.0
  9
$DIMEXE
 40
0.18
  9
$DIMTP
 40
0.0
  9
$DIMTM
 40
0.0
  9
$DIMTXT
 40
0.18
  9
$DIMCEN
 40
0.09
  9
$DIMTSZ
 40
0.0
  9
$DIMTOL
 70
     0
  9
$DIMLIM
 70
     0
  9
$DIMTIH
 70
     1
  9
$DIMTOH
 70
     1
  9
$DIMSE1
 70
     0
  9
$DIMSE2
 70
     0
  9
$DIMTAD
 70
     0
  9
$DIMZIN
 70
     0
  9
$DIMBLK
  1

  9
$DIMASO
 70
     1
  9
$DIMSHO
 70
     1
  9
$DIMPOST
  1

  9
$DIMAPOST
  1

  9
$DIMALT
 70
     0
  9
$DIMALTD
 70
     2
  9
$DIMALTF
 40
25.4
  9
$DIMLFAC
 40
1.0
  9
$DIMTOFL
 70
     0
  9
$DIMTVP
 40
0.0
  9
$DIMTIX
 70
     0
  9
$DIMSOXD
 70
     0
  9
$DIMSAH
 70
     0
  9
$DIMBLK1
  1

  9
$DIMBLK2
  1

  9
$DIMSTYLE
  2
Standard
  9
$DIMCLRD
 70
     0
  9
$DIMCLRE
 70
     0
  9
$DIMCLRT
 70
     0
  9
$DIMTFAC
 40
1.0
  9
$DIMGAP
 40
0.09
  9
$DIMJUST
 70
     0
  9
$DIMSD1
 70
     0
  9
$DIMSD2
 70
     0
  9
$DIMTOLJ
 70
     1
  9
$DIMTZIN
 70
     0
  9
$DIMALTZ
 70
     0
  9
$DIMALTTZ
 70
     0
  9
$DIMUPT
 70
     0
  9
$DIMDEC
 70
     4
  9
$DIMTDEC
 70
     4
  9
$DIMALTU
 70
     2
  9
$DIMALTTD
 70
     2
  9
$DIMTXSTY
  7
Standard
  9
$DIMAUNIT
 70
     0
  9
$DIMADEC
 70
     0
  9
$DIMALTRND
 40
0.0
  9
$DIMAZIN
 70
     0
  9
$DIMDSEP
 70
     0
  9
$DIMATFIT
 70
     3
  9
$DIMFRAC
 70
     0
  9
$DIMLDRBLK
  1

  9
$DIMLUNIT
 70
     2
  9
$DIMLWD
 70
     0
  9
$DIMLWE
 70
     0
  9
$DIMTMOVE
 70
     0
  9
$LUNITS
 70
     2
  9
$LUPREC
 70
     4
  9
$SKETCHINC
 40
0.1
  9
$FILLETRAD
 40
0.0
  9
$AUNITS
 70
     0
  9
$AUPREC
 70
     0
  9
$MENU
  1
acad
  9
$ELEVATION
 40
0.0
  9
$PELEVATION
 40
0.0
  9
$THICKNESS
 40
0.0
  9
$LIMCHECK
 70
     0
  9
$CHAMFERA
 40
0.0
  9
$CHAMFERB
 40
0.0
  9
$CHAMFERC
 40
0.0
  9
$CHAMFERD
 40
0.0
  9
$SKPOLY
 70
     0
  9
$TDCREATE
 40
0.000000000
  9
$TDUCREATE
 40
0.000000000
  9
$TDUPDATE
 40
0.000000000
  9
$TDUUPDATE
 40
0.000000000
  9
$TDINDWG
 40
0.0000000000
  9
$TDUSRTIMER
 40
0.0000000000
  9
$USRTIMER
 70
     1
  9
$ANGBASE
 50
0.0
  9
$ANGDIR
 70
     0
  9
$PDMODE
 70
     0
  9
$PDSIZE
 40
0.0
  9
$PLINEWID
 40
0.0
  9
$SPLFRAME
 70
     0
  9
$SPLINETYPE
 70
     6
  9
$SPLINESEGS
 70
     8
  9
$HANDSEED
  5
1CD
  9
$SURFTAB1
 70
     6
  9
$SURFTAB2
 70
     6
  9
$SURFTYPE
 70
     6
  9
$SURFU
 70
     6
  9
$SURFV
 70
     6
  9
$UCSBASE
  2

  9
$UCSNAME
  2

  9
$UCSORG
 10
0.0
 20
0.0
 30
0.0
  9
$UCSXDIR
 10
1.0
 20
0.0
 30
0.0
  9
$UCSYDIR
 10
0.0
 20
1.0
 30
0.0
  9
$UCSORTHOREF
  2

  9
$UCSORTHOVIEW
 70
     0
  9
$UCSORGTOP
 10
0.0
 20
0.0
 30
0.0
  9
$UCSORGBOTTOM
 10
0.0
 20
0.0
 30
0.0
  9
$UCSORGLEFT
 10
0.0
 20
0.0
 30
0.0
  9
$UCSORGRIGHT
 10
0.0
 20
0.0
 30
0.0
  9
$UCSORGFRONT
 10
0.0
 20
0.0
 30
0.0
  9
$UCSORGBACK
 10
0.0
 20
0.0
 30
0.0
  9
$PUCSBASE
  2

  9
$PUCSNAME
  2

  9
$PUCSORG
 10
0.0
 20
0.0
 30
0.0
  9
$PUCSXDIR
 10
1.0
 20
0.0
 30
0.0
  9
$PUCSYDIR
 10
0.0
 20
1.0
 30
0.0
  9
$PUCSORTHOREF
  2

  9
$PUCSORTHOVIEW
 70
     0
  9
$PUCSORGTOP
 10
0.0
 20
0.0
 30
0.0
  9
$PUCSORGBOTTOM
 10
0.0
 20
0.0
 30
0.0
  9
$PUCSORGLEFT
 10
0.0
 20
0.0
 30
0.0
  9
$PUCSORGRIGHT
 10
0.0
 20
0.0
 30
0.0
  9
$PUCSORGFRONT
 10
0.0
 20
0.0
 30
0.0
  9
$PUCSORGBACK
 10
0.0
 20
0.0
 30
0.0
  9
$USERI1
 70
     0
  9
$USERI2
 70
     0
  9
$USERI3
 70
     0
  9
$USERI4
 70
     0
  9
$USERI5
 70
     0
  9
$USERR1
 40
0.0
  9
$USERR2
 40
0.0
  9
$USERR3
 40
0.0
  9
$USERR4
 40
0.0
  9
$USERR5
 40
0.0
  9
$WORLDVIEW
 70
     1
  9
$SHADEDGE
 70
     3
  9
$SHADEDIF
 70
    70
  9
$TILEMODE
 70
     1
  9
$MAXACTVP
 70
    16
  9
$PINSBASE
 10
0.0
 20
0.0
 30
0.0
  9
$PLIMCHECK
 70
     0
  9
$PEXTMIN
 10
1.000000E+20
 20
1.000000E+20
 30
1.000000E+20
  9
$PEXTMAX
 10
-1.000000E+20
 20
-1.000000E+20
 30
-1.000000E+20
  9
$PLIMMIN
 10
0.0
 20
0.0
  9
$PLIMMAX
 10
12.0
 20
9.0
  9
$UNITMODE
 70
     0
  9
$VISRETAIN
 70
     0
  9
$PLINEGEN
 70
     1
  9
$PSLTSCALE
 70
     0
  9
$TREEDEPTH
 70
  3020
  9
$CMLSTYLE
  2
Standard
  9
$CMLJUST
 70
     0
  9
$CMLSCALE
 40
1.0
  9
$PROXYGRAPHICS
 70
     0
  9
$MEASUREMENT
 70
     0
  9
$CELWEIGHT
370
     0
  9
$ENDCAPS
280
     0
  9
$JOINSTYLE
280
     0
  9
$LWDISPLAY
290
     0
  9
$INSUNITS
 70
     0
  9
$HYPERLINKBASE
  1

  9
$XEDIT
290
     1
  9
$CEPSNTYPE
380
     0
  9
$PSTYLEMODE
290
     1
  9
$FINGERPRINTGUID
  2

  9
$VERSIONGUID
  2

  9
$EXTNAMES
290
     1
  9
$PSVPSCALE
 40
0.0
  0
ENDSEC
  0
SECTION
  2
CLASSES
  0
CLASS
  1
LWPOLYLINE
  2
AcDbPolyline
  3
"AutoCAD"
 90
        0
280
     0
281
     1
  0
CLASS
  1
IMAGE
  2
AcDbRasterImage
  3
ISM
 90
      127
280
     0
281
     1
  0
CLASS
  1
OLE2FRAME
  2
AcDbOle2Frame
  3
""
 90
        0
280
     0
281
     1
  0
CLASS
  1
HATCH
  2
AcDbHatch
  3
"ACAD_SEDONA"
 90
        0
280
     0
281
     1
  0
CLASS
  1
DICTIONARYVAR
  2
AcDbDictionaryVar
  3
"AutoCAD"
 90
        0
280
     0
281
     0
  0
CLASS
  1
RASTERVARIABLES
  2
AcDbRasterVariables
  3
ISM
 90
        0
280
     0
281
     0
  0
CLASS
  1
IMAGEDEF
  2
AcDbRasterImageDef
  3
ISM
 90
        0
280
     0
281
     0
  0
CLASS
  1
IMAGEDEF_REACTOR
  2
AcDbRasterImageDefReactor
  3
ISM
 90
        1
280
     0
281
     0
  0
CLASS
  1
IDBUFFER
  2
AcDbIdBuffer
  3
"Acad"
 90
        0
280
     0
281
     0
  0
CLASS
  1
SPATIAL_FILTER
  2
AcDbSpatialFilter
  3
"Acad"
 90
        0
280
     0
281
     0
  0
CLASS
  1
XRECORD
  2
AcDbXrecord
  3
"<Built In>"
 90
        0
280
     0
281
     0
  0
CLASS
  1
SORTENTSTABLE
  2
AcDbSortentsTable
  3
"AutoCAD"
 90
        0
280
     0
281
     0
  0
CLASS
  1
LAYER_INDEX
  2
AcDbLayerIndex
  3
"Acad"
 90
        0
280
     0
281
     0
  0
CLASS
  1
SPATIAL_INDEX
  2
AcDbSpatialIndex
  3
"Acad"
 90
        0
280
     0
281
     0
  0
CLASS
  1
OBJECT_PTR
  2
CAseDLPNTableRecord
  3
"ASE-LPNTableRecord"
 90
        1
280
     0
281
     0
  0
CLASS
  1
LAYOUT
  2
AcDbLayout
  3
"AutoCAD 2000"
 90
        1
280
     0
281
     0
  0
CLASS
  1
PLOTSETTINGS
  2
AcDbPlotSettings
  3
"AutoCAD 2000"
 90
        1
280
     0
281
     0
  0
CLASS
  1
ACDBDICTIONARYWDFLT
  2
AcDbDictionaryWithDefault
  3
"AutoCAD 2000"
 90
        1
280
     0
281
     0
  0
CLASS
  1
ACDBPLACEHOLDER
  2
AcDbPlaceHolder
  3
"AutoCAD 2000"
 90
        1
280
     0
281
     0
  0
CLASS
  1
VBA_PROJECT
  2
AcDbVbaProject
  3
"acadvba"
 90
        1
280
     0
281
     0
  0
CLASS
  1
WIPEOUT
  2
AcDbWipeout
  3
WipeOut|AutoCAD Express Tool|expresstools@autodesk.com
 90
      127
280
     0
281
     1
  0
CLASS
  1
WIPEOUTVARIABLES
  2
AcDbWipeoutVariables
  3
WipeOut|AutoCAD Express Tool|expresstools@autodesk.com
 90
        0
280
     0
281
     0
  0
CLASS
  1
RTEXT
  2
RText
  3
RText|AutoCAD Express Tool|expresstools@autodesk.com
 90
        0
280
     0
281
     1
  0
CLASS
  1
ARCALIGNEDTEXT
  2
AcDbArcAlignedText
  3
ATEXT|AutoCAD Express Tool|expresstools@autodesk.com
 90
        0
280
     0
281
     1
  0
ENDSEC
  0
SECTION
  2
TABLES
  0
TABLE
  2
VPORT
  5
7
100
AcDbSymbolTable
 70
     1
  0
VPORT
  5
15
100
AcDbSymbolTableRecord
100
AcDbViewportTableRecord
  2
*ACTIVE
 70
     0
 10
0.0
 20
0.0
 11
1.0
 21
1.0
 12
6.591288
 22
4.579184
 13
0.0
 23
0.0
 14
1.0
 24
1.0
 15
0.0
 25
0.0
 16
0.0
 26
0.0
 36
1.0
 17
0.0
 27
0.0
 37
0.0
 40
9.158369
 41
0.688564
 42
50.0
 43
0.0
 44
0.0
 50
0.0
 51
0.0
 71
     0
 72
   100
 73
     1
 74
     1
 75
     0
 76
     0
 77
     0
 78
     0
281
     0
 65
     0
110
0.0
120
0.0
130
0.0
111
1.0
121
0.0
131
0.0
112
0.0
122
1.0
132
0.0
345
0
346
0
 79
     0
146
0.0
  0
ENDTAB
  0
TABLE
  2
LTYPE
  5
4
100
AcDbSymbolTable
 70
     4
  0
LTYPE
  5
11
100
AcDbSymbolTableRecord
100
AcDbLinetypeTableRecord
  2
ByBlock
 70
    64
  3

 72
    65
 73
     0
 40
0.0
  0
LTYPE
  5
12
100
AcDbSymbolTableRecord
100
AcDbLinetypeTableRecord
  2
ByLayer
 70
    64
  3

 72
    65
 73
     0
 40
0.0
  0
LTYPE
  5
13
100
AcDbSymbolTableRecord
100
AcDbLinetypeTableRecord
  2
Continuous
 70
    64
  3
Solid line
 72
    65
 73
     0
 40
0.0
  0
LTYPE
  5
1A5
100
AcDbSymbolTableRecord
100
AcDbLinetypeTableRecord
  2
AI9-LType1
 70
    64
  3
Illustrator Dash Style No.1
 72
    65
 73
     1
 40
1.058333
 49
1.058333
 74
     0
  0
ENDTAB
  0
TABLE
  2
LAYER
  5
2
100
AcDbSymbolTable
 70
     4
  0
LAYER
  5
14
100
AcDbSymbolTableRecord
100
AcDbLayerTableRecord
  2
0
 70
     0
 62
     7
  6
Continuous
290
     1
370
    -3
390
1D
  0
LAYER
  5
28
100
AcDbSymbolTableRecord
100
AcDbLayerTableRecord
  2
レイヤー_1
 70
     0
 62
   160
  6
Continuous
290
     1
370
    -3
390
1F
  0
LAYER
  5
30
100
AcDbSymbolTableRecord
100
AcDbLayerTableRecord
  2
0
 70
     0
 62
     7
  6
Continuous
290
     1
370
    -3
390
1F
  0
LAYER
  5
31
100
AcDbSymbolTableRecord
100
AcDbLayerTableRecord
  2
LAYER_1
 70
     0
 62
     7
  6
Continuous
290
     1
370
    -3
390
1F
  0
ENDTAB
  0
TABLE
  2
STYLE
  5
3
100
AcDbSymbolTable
 70
     5
  0
STYLE
  5
17
100
AcDbSymbolTableRecord
100
AcDbTextStyleTableRecord
  2
Standard
 70
     0
 40
0.0
 41
1.0
 50
0.0
 71
     0
 42
0.0
  3
txt
  4

  0
STYLE
  5
24
100
AcDbSymbolTableRecord
100
AcDbTextStyleTableRecord
  2
STD
 70
     0
 40
0.0
 41
1.0
 50
0.0
 71
     0
 42
0.0
  3
txt
  4

  0
STYLE
  5
25
100
AcDbSymbolTableRecord
100
AcDbTextStyleTableRecord
  2
TATESTD
 70
     4
 40
0.0
 41
1.0
 50
0.0
 71
     0
 42
0.0
  3
txt
  4

  0
STYLE
  5
26
100
AcDbSymbolTableRecord
100
AcDbTextStyleTableRecord
  2
KANJISTD
 70
     0
 40
0.0
 41
1.0
 50
0.0
 71
     0
 42
0.0
  3
txt
  4
extfont
  0
STYLE
  5
27
100
AcDbSymbolTableRecord
100
AcDbTextStyleTableRecord
  2
KANJITATE
 70
     4
 40
0.0
 41
1.0
 50
0.0
 71
     0
 42
0.0
  3
txt
  4
extfont
  0
ENDTAB
  0
TABLE
  2
VIEW
  5
5
100
AcDbSymbolTable
 70
     0
  0
ENDTAB
  0
TABLE
  2
UCS
  5
6
100
AcDbSymbolTable
 70
     0
  0
ENDTAB
  0
TABLE
  2
APPID
  5
8
100
AcDbSymbolTable
 70
     1
  0
APPID
  5
16
100
AcDbSymbolTableRecord
100
AcDbRegAppTableRecord
  2
ACAD
 70
     0
  0
ENDTAB
  0
TABLE
  2
DIMSTYLE
  5
9
100
AcDbSymbolTable
 70
     1
100
AcDbDimStyleTable
 71
     0
  0
DIMSTYLE
105
18
100
AcDbSymbolTableRecord
100
AcDbDimStyleTableRecord
  2
Standard
 70
     0
  3

  4

 40
1.0
 41
0.18
 42
0.0625
 43
0.38
 44
0.18
 45
0.0
 46
0.0
 47
0.0
 48
0.0
 71
     0
 72
     0
 73
     1
 74
     1
 75
     0
 76
     0
 77
     0
 78
     0
 79
     0
140
0.18
141
0.09
142
0.0
143
25.4
144
1.0
145
0.0
146
1.0
147
0.09
148
0.0
170
     0
171
     2
172
     0
173
     0
174
     0
175
     0
176
     0
177
     0
178
     0
179
     0
271
     4
272
     4
273
     2
274
     2
275
     0
276
     0
277
     2
278
    46
279
     0
280
     0
281
     0
282
     0
283
     1
284
     0
285
     0
286
     0
288
     0
340
17
341
0
342
0
343
0
344
0
371
    -2
372
    -2
  0
ENDTAB
  0
TABLE
  2
BLOCK_RECORD
  5
1
100
AcDbSymbolTable
 70
     2
  0
BLOCK_RECORD
  5
A
100
AcDbSymbolTableRecord
100
AcDbBlockTableRecord
  2
*MODEL_SPACE
340
20
  0
BLOCK_RECORD
  5
B
100
AcDbSymbolTableRecord
100
AcDbBlockTableRecord
  2
*PAPER_SPACE
340
21
  0
BLOCK_RECORD
  5
32
100
AcDbSymbolTableRecord
100
AcDbBlockTableRecord
  2
AI9-BLK1
340
0
  0
BLOCK_RECORD
  5
99
100
AcDbSymbolTableRecord
100
AcDbBlockTableRecord
  2
AI9-BLK2
340
0
  0
ENDTAB
  0
ENDSEC
  0
SECTION
  2
BLOCKS
  0
BLOCK
  5
D
100
AcDbEntity
  8
0
100
AcDbBlockBegin
  2
*MODEL_SPACE
 70
     0
 10
0.0
 20
0.0
 30
0.0
  3
*MODEL_SPACE
  1

  0
ENDBLK
  5
E
100
AcDbEntity
  8
0
100
AcDbBlockEnd
  0
BLOCK
  5
F
100
AcDbEntity
 67
     1
  8
0
100
AcDbBlockBegin
  2
*PAPER_SPACE
 70
     0
 10
0.0
 20
0.0
 30
0.0
  3
*PAPER_SPACE
  1

  0
ENDBLK
  5
10
100
AcDbEntity
 67
     1
  8
0
100
AcDbBlockEnd
  0
BLOCK
  5
34
100
AcDbEntity
  8
LAYER_1
 62
     7
100
AcDbBlockBegin
  2
AI9-BLK1
 70
     0
 10
0.0
 20
0.0
 30
0.0
  3
AI9-BLK1
  1

  0
LINE
  5
45
100
AcDbEntity
  8
LAYER_1
 62
     7
100
AcDbLine
 10
0.226946
 20
4.631414
 30
0.0
 11
-1.640296
 21
2.763828
 31
0.0
  0
LINE
  5
44
100
AcDbEntity
  8
LAYER_1
 62
     7
100
AcDbLine
 10
1.722462
 20
2.505101
 30
0.0
 11
-1.730902
 21
-0.948263
 31
0.0
  0
LINE
  5
43
100
AcDbEntity
  8
LAYER_1
 62
     7
100
AcDbLine
 10
1.743649
 20
-1.097091
 30
0.0
 11
-0.084663
 21
-2.925058
 31
0.0
  0
LINE
  5
42
100
AcDbEntity
  8
LAYER_1
 62
     7
100
AcDbLine
 10
1.708164
 20
-4.419541
 30
0.0
 11
1.559681
 21
-4.569402
 31
0.0
  0
LINE
  5
41
100
AcDbEntity
  8
LAYER_1
 62
     7
100
AcDbLine
 10
1.735553
 20
4.329279
 30
0.0
 11
-1.725907
 21
0.867647
 31
0.0
  0
LINE
  5
40
100
AcDbEntity
  8
LAYER_1
 62
     7
100
AcDbLine
 10
1.717122
 20
0.687469
 30
0.0
 11
-0.949727
 21
-1.97938
 31
0.0
  0
LINE
  5
3F
100
AcDbEntity
  8
LAYER_1
 62
     7
100
AcDbLine
 10
1.713504
 20
-2.603631
 30
0.0
 11
0.642596
 21
-3.674367
 31
0.0
  0
LINE
  5
3E
100
AcDbEntity
  8
LAYER_1
 62
     7
100
AcDbLine
 10
-0.65586
 20
4.760605
 30
0.0
 11
1.723151
 21
2.381422
 31
0.0
  0
LINE
  5
3D
100
AcDbEntity
  8
LAYER_1
 62
     7
100
AcDbLine
 10
-1.736414
 20
0.211357
 30
0.0
 11
1.726251
 21
-3.251653
 31
0.0
  0
LINE
  5
3C
100
AcDbEntity
  8
LAYER_1
 62
     7
100
AcDbLine
 10
-1.744338
 20
2.141644
 30
0.0
 11
1.728146
 21
-1.330324
 31
0.0
  0
LINE
  5
3B
100
AcDbEntity
  8
LAYER_1
 62
     7
100
AcDbLine
 10
-1.734692
 20
3.915179
 30
0.0
 11
1.753123
 21
0.42702
 31
0.0
  0
POLYLINE
  5
36
100
AcDbEntity
  8
LAYER_1
 62
     7
100
AcDb2dPolyline
 66
     1
 10
0.0
 20
0.0
 30
0.0
  0
VERTEX
  5
37
100
AcDbEntity
  8
LAYER_1
 62
     7
100
AcDbVertex
100
AcDb2dVertex
 10
1.734692
 20
-4.760605
 30
0.0
  0
VERTEX
  5
38
100
AcDbEntity
  8
LAYER_1
 62
     7
100
AcDbVertex
100
AcDb2dVertex
 10
1.733141
 20
4.737179
 30
0.0
  0
VERTEX
  5
39
100
AcDbEntity
  8
LAYER_1
 62
     7
100
AcDbVertex
100
AcDb2dVertex
 10
-1.702997
 20
4.737179
 30
0.0
  0
SEQEND
  5
3A
100
AcDbEntity
  8
LAYER_1
 62
     7
  0
LINE
  5
35
100
AcDbEntity
  8
LAYER_1
 62
     7
100
AcDbLine
 10
0.330299
 20
4.734767
 30
0.0
 11
-1.753123
 21
2.651173
 31
0.0
  0
ENDBLK
  5
46
100
AcDbEntity
  8
LAYER_1
100
AcDbBlockEnd
  0
BLOCK
  5
9B
100
AcDbEntity
  8
LAYER_1
 62
     7
100
AcDbBlockBegin
  2
AI9-BLK2
 70
     0
 10
0.0
 20
0.0
 30
0.0
  3
AI9-BLK2
  1

  0
SPLINE
  5
A6
100
AcDbEntity
  8
LAYER_1
 62
     7
100
AcDbSpline
210
0.0
220
0.0
230
1.0
 70
     8
 71
     3
 72
    17
 73
    13
 74
     0
 42
0.00000001
 43
0.00000001
 40
0.0
 40
0.0
 40
0.0
 40
0.0
 40
1.0
 40
1.0
 40
1.0
 40
2.0
 40
2.0
 40
2.0
 40
3.0
 40
3.0
 40
3.0
 40
4.0
 40
4.0
 40
4.0
 40
4.0
 10
52.109911431206591
 20
-0.6213229709201389
 30
0.0
 10
52.343488905164925
 20
-0.4693942599826388
 30
0.0
 10
52.477503119574649
 20
-0.2034328884548611
 30
0.0
 10
52.460622151692704
 20
0.0745863172743056
 30
0.0
 10
52.385174560546872
 20
0.4394219292534722
 30
0.0
 10
52.054789903428812
 20
0.6947035047743055
 30
0.0
 10
51.682719590928812
 20
0.6754109700520833
 30
0.0
 10
51.317883978949645
 20
0.59996337890625
 30
0.0
 10
51.062602403428812
 20
0.2695787217881944
 30
0.0
 10
51.081550428602426
 20
-0.1024915907118056
 30
0.0
 10
51.249671088324646
 20
-0.5052232530381944
 30
0.0
 10
51.686164686414926
 20
-0.7257093641493055
 30
0.0
 10
52.109911431206591
 20
-0.6213229709201389
 30
0.0
  0
SPLINE
  5
A5
100
AcDbEntity
  8
LAYER_1
 62
     7
100
AcDbSpline
210
0.0
220
0.0
230
1.0
 70
     8
 71
     3
 72
    17
 73
    13
 74
     0
 42
0.00000001
 43
0.00000001
 40
0.0
 40
0.0
 40
0.0
 40
0.0
 40
1.0
 40
1.0
 40
1.0
 40
2.0
 40
2.0
 40
2.0
 40
3.0
 40
3.0
 40
3.0
 40
4.0
 40
4.0
 40
4.0
 40
4.0
 10
43.181601969401036
 20
-0.6213229709201389
 30
0.0
 10
43.415523952907982
 20
-0.4693942599826388
 30
0.0
 10
43.549538167317706
 20
-0.2034328884548611
 30
0.0
 10
43.532657199435761
 20
0.0745863172743056
 30
0.0
 10
43.456865098741318
 20
0.4394219292534722
 30
0.0
 10
43.126480441623258
 20
0.6947035047743055
 30
0.0
 10
42.754410129123258
 20
0.6754109700520833
 30
0.0
 10
42.389574517144091
 20
0.59996337890625
 30
0.0
 10
42.134292941623258
 20
0.2695787217881944
 30
0.0
 10
42.153240966796872
 20
-0.1024915907118056
 30
0.0
 10
42.321361626519092
 20
-0.5052232530381944
 30
0.0
 10
42.757855224609372
 20
-0.7257093641493055
 30
0.0
 10
43.181601969401036
 20
-0.6213229709201389
 30
0.0
  0
SPLINE
  5
A4
100
AcDbEntity
  8
LAYER_1
 62
     7
100
AcDbSpline
210
0.0
220
0.0
230
1.0
 70
     8
 71
     3
 72
    29
 73
    25
 74
     0
 42
0.00000001
 43
0.00000001
 40
0.0
 40
0.0
 40
0.0
 40
0.0
 40
1.0
 40
1.0
 40
1.0
 40
2.0
 40
2.0
 40
2.0
 40
3.0
 40
3.0
 40
3.0
 40
4.0
 40
4.0
 40
4.0
 40
5.0
 40
5.0
 40
5.0
 40
6.0
 40
6.0
 40
6.0
 40
7.0
 40
7.0
 40
7.0
 40
8.0
 40
8.0
 40
8.0
 40
8.0
 10
33.914639621310762
 20
-0.7091729058159721
 30
0.0
 10
34.098952229817705
 20
-0.7091729058159721
 30
0.0
 10
34.276030137803815
 20
-0.6357923719618055
 30
0.0
 10
34.406599256727425
 20
-0.5055677625868055
 30
0.0
 10
34.536823866102431
 20
-0.3753431532118055
 30
0.0
 10
34.610204399956594
 20
-0.1982652452256944
 30
0.0
 10
34.610204399956594
 20
-0.01395263671875
 30
0.0
 10
34.610204399956594
 20
0.1703599717881944
 30
0.0
 10
34.536823866102431
 20
0.3470933702256944
 30
0.0
 10
34.406254747178814
 20
0.4776624891493055
 30
0.0
 10
34.276030137803815
 20
0.6078870985243055
 30
0.0
 10
34.098952229817705
 20
0.6812676323784722
 30
0.0
 10
33.914639621310762
 20
0.6812676323784722
 30
0.0
 10
33.730327012803819
 20
0.6812676323784722
 30
0.0
 10
33.553593614366314
 20
0.6078870985243055
 30
0.0
 10
33.423369004991315
 20
0.4776624891493055
 30
0.0
 10
33.293144395616316
 20
0.3470933702256944
 30
0.0
 10
33.219763861762146
 20
0.1703599717881944
 30
0.0
 10
33.219763861762146
 20
-0.01395263671875
 30
0.0
 10
33.219763861762146
 20
-0.1982652452256944
 30
0.0
 10
33.293144395616316
 20
-0.3749986436631944
 30
0.0
 10
33.423369004991315
 20
-0.5055677625868055
 30
0.0
 10
33.553593614366314
 20
-0.6357923719618055
 30
0.0
 10
33.730327012803819
 20
-0.7091729058159721
 30
0.0
 10
33.914639621310762
 20
-0.7091729058159721
 30
0.0
  0
SPLINE
  5
A3
100
AcDbEntity
  8
LAYER_1
 62
     7
100
AcDbSpline
210
0.0
220
0.0
230
1.0
 70
     8
 71
     3
 72
    17
 73
    13
 74
     0
 42
0.00000001
 43
0.00000001
 40
0.0
 40
0.0
 40
0.0
 40
0.0
 40
1.0
 40
1.0
 40
1.0
 40
2.0
 40
2.0
 40
2.0
 40
3.0
 40
3.0
 40
3.0
 40
4.0
 40
4.0
 40
4.0
 40
4.0
 10
25.325327555338539
 20
-0.6213229709201389
 30
0.0
 10
25.559249538845485
 20
-0.4693942599826388
 30
0.0
 10
25.693263753255206
 20
-0.2034328884548611
 30
0.0
 10
25.67638278537326
 20
0.0745863172743056
 30
0.0
 10
25.600590684678817
 20
0.4394219292534722
 30
0.0
 10
25.270206027560761
 20
0.6947035047743055
 30
0.0
 10
24.898135715060761
 20
0.6754109700520833
 30
0.0
 10
24.533300103081594
 20
0.59996337890625
 30
0.0
 10
24.278018527560761
 20
0.2695787217881944
 30
0.0
 10
24.296966552734371
 20
-0.1024915907118056
 30
0.0
 10
24.465087212456595
 20
-0.5052232530381944
 30
0.0
 10
24.901580810546871
 20
-0.7257093641493055
 30
0.0
 10
25.325327555338539
 20
-0.6213229709201389
 30
0.0
  0
SPLINE
  5
A2
100
AcDbEntity
  8
LAYER_1
 62
     7
100
AcDbSpline
210
0.0
220
0.0
230
1.0
 70
     8
 71
     3
 72
    17
 73
    13
 74
     0
 42
0.00000001
 43
0.00000001
 40
0.0
 40
0.0
 40
0.0
 40
0.0
 40
1.0
 40
1.0
 40
1.0
 40
2.0
 40
2.0
 40
2.0
 40
3.0
 40
3.0
 40
3.0
 40
4.0
 40
4.0
 40
4.0
 40
4.0
 10
16.397362603081596
 20
-0.6213229709201389
 30
0.0
 10
16.630940077039931
 20
-0.4693942599826388
 30
0.0
 10
16.764954291449651
 20
-0.2034328884548611
 30
0.0
 10
16.748073323567706
 20
0.0745863172743056
 30
0.0
 10
16.672625732421874
 20
0.4394219292534722
 30
0.0
 10
16.342241075303818
 20
0.6947035047743055
 30
0.0
 10
15.970170762803818
 20
0.6754109700520833
 30
0.0
 10
15.605335150824651
 20
0.59996337890625
 30
0.0
 10
15.350053575303818
 20
0.2695787217881944
 30
0.0
 10
15.369001600477429
 20
-0.1024915907118056
 30
0.0
 10
15.537122260199652
 20
-0.5052232530381944
 30
0.0
 10
15.973615858289929
 20
-0.7257093641493055
 30
0.0
 10
16.397362603081596
 20
-0.6213229709201389
 30
0.0
  0
SPLINE
  5
A1
100
AcDbEntity
  8
LAYER_1
 62
     7
100
AcDbSpline
210
0.0
220
0.0
230
1.0
 70
     8
 71
     3
 72
    29
 73
    25
 74
     0
 42
0.00000001
 43
0.00000001
 40
0.0
 40
0.0
 40
0.0
 40
0.0
 40
1.0
 40
1.0
 40
1.0
 40
2.0
 40
2.0
 40
2.0
 40
3.0
 40
3.0
 40
3.0
 40
4.0
 40
4.0
 40
4.0
 40
5.0
 40
5.0
 40
5.0
 40
6.0
 40
6.0
 40
6.0
 40
7.0
 40
7.0
 40
7.0
 40
8.0
 40
8.0
 40
8.0
 40
8.0
 10
1.8032491048177082
 20
-0.6812676323784722
 30
0.0
 10
1.9875617133246526
 20
-0.680923122829861
 30
0.0
 10
2.1646396213107635
 20
-0.6078870985243055
 30
0.0
 10
2.2948642306857638
 20
-0.4773179796006944
 30
0.0
 10
2.4250888400607638
 20
-0.3467488606770833
 30
0.0
 10
2.4984693739149302
 20
-0.1700154622395833
 30
0.0
 10
2.4984693739149302
 20
0.0142971462673611
 30
0.0
 10
2.4984693739149302
 20
0.1986097547743055
 30
0.0
 10
2.4250888400607638
 20
0.3753431532118055
 30
0.0
 10
2.2948642306857638
 20
0.5055677625868055
 30
0.0
 10
2.1642951117621525
 20
0.6361368815104166
 30
0.0
 10
1.9875617133246526
 20
0.7091729058159721
 30
0.0
 10
1.8032491048177082
 20
0.7091729058159721
 30
0.0
 10
1.6189364963107638
 20
0.7091729058159721
 30
0.0
 10
1.4422030978732638
 20
0.6361368815104166
 30
0.0
 10
1.3116339789496527
 20
0.5055677625868055
 30
0.0
 10
1.1814093695746526
 20
0.3753431532118055
 30
0.0
 10
1.1080288357204859
 20
0.1986097547743055
 30
0.0
 10
1.1080288357204859
 20
0.0142971462673611
 30
0.0
 10
1.1080288357204859
 20
-0.1700154622395833
 30
0.0
 10
1.1814093695746526
 20
-0.3467488606770833
 30
0.0
 10
1.3116339789496527
 20
-0.4773179796006944
 30
0.0
 10
1.4422030978732638
 20
-0.6078870985243055
 30
0.0
 10
1.6189364963107638
 20
-0.680923122829861
 30
0.0
 10
1.8032491048177082
 20
-0.6812676323784722
 30
0.0
  0
SPLINE
  5
A0
100
AcDbEntity
  8
LAYER_1
 62
     7
100
AcDbSpline
210
0.0
220
0.0
230
1.0
 70
     8
 71
     3
 72
    29
 73
    25
 74
     0
 42
0.00000001
 43
0.00000001
 40
0.0
 40
0.0
 40
0.0
 40
0.0
 40
1.0
 40
1.0
 40
1.0
 40
2.0
 40
2.0
 40
2.0
 40
3.0
 40
3.0
 40
3.0
 40
4.0
 40
4.0
 40
4.0
 40
5.0
 40
5.0
 40
5.0
 40
6.0
 40
6.0
 40
6.0
 40
7.0
 40
7.0
 40
7.0
 40
8.0
 40
8.0
 40
8.0
 40
8.0
 10
-7.1250603569878468
 20
-0.6812676323784722
 30
0.0
 10
-6.9407477484809021
 20
-0.680923122829861
 30
0.0
 10
-6.7636698404947913
 20
-0.6078870985243055
 30
0.0
 10
-6.6334452311197909
 20
-0.4773179796006944
 30
0.0
 10
-6.5032206217447914
 20
-0.3467488606770833
 30
0.0
 10
-6.4298400878906241
 20
-0.1700154622395833
 30
0.0
 10
-6.4298400878906241
 20
0.0142971462673611
 30
0.0
 10
-6.4298400878906241
 20
0.1986097547743055
 30
0.0
 10
-6.5032206217447914
 20
0.3753431532118055
 30
0.0
 10
-6.6334452311197909
 20
0.5055677625868055
 30
0.0
 10
-6.7636698404947913
 20
0.6361368815104166
 30
0.0
 10
-6.9407477484809021
 20
0.7091729058159721
 30
0.0
 10
-7.1250603569878468
 20
0.7091729058159721
 30
0.0
 10
-7.3093729654947914
 20
0.7091729058159721
 30
0.0
 10
-7.4861063639322909
 20
0.6361368815104166
 30
0.0
 10
-7.6163309733072913
 20
0.5055677625868055
 30
0.0
 10
-7.7469000922309021
 20
0.3753431532118055
 30
0.0
 10
-7.819936116536458
 20
0.1986097547743055
 30
0.0
 10
-7.819936116536458
 20
0.0142971462673611
 30
0.0
 10
-7.8202806260850686
 20
-0.1700154622395833
 30
0.0
 10
-7.7469000922309021
 20
-0.3467488606770833
 30
0.0
 10
-7.6166754828559018
 20
-0.4773179796006944
 30
0.0
 10
-7.4861063639322909
 20
-0.6078870985243055
 30
0.0
 10
-7.3093729654947914
 20
-0.680923122829861
 30
0.0
 10
-7.1250603569878468
 20
-0.6812676323784722
 30
0.0
  0
SPLINE
  5
9F
100
AcDbEntity
  8
LAYER_1
 62
     7
100
AcDbSpline
210
0.0
220
0.0
230
1.0
 70
     8
 71
     3
 72
    29
 73
    25
 74
     0
 42
0.00000001
 43
0.00000001
 40
0.0
 40
0.0
 40
0.0
 40
0.0
 40
1.0
 40
1.0
 40
1.0
 40
2.0
 40
2.0
 40
2.0
 40
3.0
 40
3.0
 40
3.0
 40
4.0
 40
4.0
 40
4.0
 40
5.0
 40
5.0
 40
5.0
 40
6.0
 40
6.0
 40
6.0
 40
7.0
 40
7.0
 40
7.0
 40
8.0
 40
8.0
 40
8.0
 40
8.0
 10
-24.980990261501734
 20
-0.6812676323784722
 30
0.0
 10
-24.796677652994788
 20
-0.680923122829861
 30
0.0
 10
-24.619944254557289
 20
-0.6078870985243055
 30
0.0
 10
-24.489719645182291
 20
-0.4773179796006944
 30
0.0
 10
-24.359150526258677
 20
-0.3467488606770833
 30
0.0
 10
-24.286114501953122
 20
-0.1700154622395833
 30
0.0
 10
-24.286114501953122
 20
0.0142971462673611
 30
0.0
 10
-24.286114501953122
 20
0.1986097547743055
 30
0.0
 10
-24.359495035807289
 20
0.3753431532118055
 30
0.0
 10
-24.489719645182291
 20
0.5055677625868055
 30
0.0
 10
-24.619944254557289
 20
0.6361368815104166
 30
0.0
 10
-24.796677652994788
 20
0.7091729058159721
 30
0.0
 10
-24.980990261501734
 20
0.7091729058159721
 30
0.0
 10
-25.165647379557289
 20
0.7091729058159721
 30
0.0
 10
-25.342380777994791
 20
0.6361368815104166
 30
0.0
 10
-25.472605387369789
 20
0.5055677625868055
 30
0.0
 10
-25.603174506293399
 20
0.3753431532118055
 30
0.0
 10
-25.676210530598954
 20
0.1986097547743055
 30
0.0
 10
-25.676210530598954
 20
0.0142971462673611
 30
0.0
 10
-25.676210530598954
 20
-0.1700154622395833
 30
0.0
 10
-25.603174506293399
 20
-0.3467488606770833
 30
0.0
 10
-25.472949896918401
 20
-0.4773179796006944
 30
0.0
 10
-25.342380777994791
 20
-0.6078870985243055
 30
0.0
 10
-25.165647379557289
 20
-0.680923122829861
 30
0.0
 10
-24.980990261501734
 20
-0.6812676323784722
 30
0.0
  0
SPLINE
  5
9E
100
AcDbEntity
  8
LAYER_1
 62
     7
100
AcDbSpline
210
0.0
220
0.0
230
1.0
 70
     8
 71
     3
 72
    23
 73
    19
 74
     0
 42
0.00000001
 43
0.00000001
 40
0.0
 40
0.0
 40
0.0
 40
0.0
 40
1.0
 40
1.0
 40
1.0
 40
2.0
 40
2.0
 40
2.0
 40
3.0
 40
3.0
 40
3.0
 40
4.0
 40
4.0
 40
4.0
 40
5.0
 40
5.0
 40
5.0
 40
6.0
 40
6.0
 40
6.0
 40
6.0
 10
-33.909299723307285
 20
-0.6812676323784722
 30
0.0
 10
-33.724987114800342
 20
-0.680923122829861
 30
0.0
 10
-33.548081461588538
 20
-0.6078870985243055
 30
0.0
 10
-33.417856852213539
 20
-0.4773179796006944
 30
0.0
 10
-33.287459988064235
 20
-0.3467488606770833
 30
0.0
 10
-33.214079454210065
 20
-0.1700154622395833
 30
0.0
 10
-33.214079454210065
 20
0.0142971462673611
 30
0.0
 10
-33.226654052734375
 20
0.2096340603298611
 30
0.0
 10
-33.316398790147566
 20
0.3918796115451388
 30
0.0
 10
-33.463332112630205
 20
0.5210706922743055
 30
0.0
 10
-33.610265435112844
 20
0.6506062825520833
 30
0.0
 10
-33.802501763237842
 20
0.7160630967881944
 30
0.0
 10
-33.997838677300344
 20
0.7036607530381944
 30
0.0
 10
-34.362674289279511
 20
0.6278686523437499
 30
0.0
 10
-34.617783610026038
 20
0.2978285047743055
 30
0.0
 10
-34.598835584852431
 20
-0.0742418077256944
 30
0.0
 10
-34.550087483723956
 20
-0.4190958658854166
 30
0.0
 10
-34.257254367404514
 20
-0.6764444986979166
 30
0.0
 10
-33.909299723307285
 20
-0.6812676323784722
 30
0.0
  0
SPLINE
  5
9D
100
AcDbEntity
  8
LAYER_1
 62
     7
100
AcDbSpline
210
0.0
220
0.0
230
1.0
 70
     8
 71
     3
 72
    23
 73
    19
 74
     0
 42
0.00000001
 43
0.00000001
 40
0.0
 40
0.0
 40
0.0
 40
0.0
 40
1.0
 40
1.0
 40
1.0
 40
2.0
 40
2.0
 40
2.0
 40
3.0
 40
3.0
 40
3.0
 40
4.0
 40
4.0
 40
4.0
 40
5.0
 40
5.0
 40
5.0
 40
6.0
 40
6.0
 40
6.0
 40
6.0
 10
-42.837436930338541
 20
-0.6812676323784722
 30
0.0
 10
-42.652952067057285
 20
-0.680923122829861
 30
0.0
 10
-42.476218668619786
 20
-0.6078870985243055
 30
0.0
 10
-42.345821804470482
 20
-0.4773179796006944
 30
0.0
 10
-42.215424940321178
 20
-0.3467488606770833
 30
0.0
 10
-42.142216661241314
 20
-0.1700154622395833
 30
0.0
 10
-42.142388916015619
 20
0.0142971462673611
 30
0.0
 10
-42.154791259765624
 20
0.2096340603298611
 30
0.0
 10
-42.244363742404509
 20
0.3918796115451388
 30
0.0
 10
-42.391297064887148
 20
0.5210706922743055
 30
0.0
 10
-42.538402642144092
 20
0.6506062825520833
 30
0.0
 10
-42.730638970269091
 20
0.7160630967881944
 30
0.0
 10
-42.925975884331592
 20
0.7036607530381944
 30
0.0
 10
-43.290639241536454
 20
0.6278686523437499
 30
0.0
 10
-43.545920817057286
 20
0.2978285047743055
 30
0.0
 10
-43.526800537109374
 20
-0.0742418077256944
 30
0.0
 10
-43.478224690755205
 20
-0.4190958658854166
 30
0.0
 10
-43.185563829210068
 20
-0.6764444986979166
 30
0.0
 10
-42.837436930338541
 20
-0.6812676323784722
 30
0.0
  0
SPLINE
  5
9C
100
AcDbEntity
  8
LAYER_1
 62
     7
100
AcDbSpline
210
0.0
220
0.0
230
1.0
 70
     8
 71
     3
 72
    29
 73
    25
 74
     0
 42
0.00000001
 43
0.00000001
 40
0.0
 40
0.0
 40
0.0
 40
0.0
 40
1.0
 40
1.0
 40
1.0
 40
2.0
 40
2.0
 40
2.0
 40
3.0
 40
3.0
 40
3.0
 40
4.0
 40
4.0
 40
4.0
 40
5.0
 40
5.0
 40
5.0
 40
6.0
 40
6.0
 40
6.0
 40
7.0
 40
7.0
 40
7.0
 40
8.0
 40
8.0
 40
8.0
 40
8.0
 10
-51.765574137369789
 20
-0.6812676323784722
 30
0.0
 10
-51.581261528862839
 20
-0.6812676323784722
 30
0.0
 10
-51.404355875651035
 20
-0.6078870985243055
 30
0.0
 10
-51.273959011501731
 20
-0.4773179796006944
 30
0.0
 10
-51.143562147352426
 20
-0.3470933702256944
 30
0.0
 10
-51.070353868272562
 20
-0.1700154622395833
 30
0.0
 10
-51.070353868272562
 20
0.0142971462673611
 30
0.0
 10
-51.070353868272562
 20
0.1986097547743055
 30
0.0
 10
-51.143734402126732
 20
0.3753431532118055
 30
0.0
 10
-51.274131266276036
 20
0.5055677625868055
 30
0.0
 10
-51.404355875651035
 20
0.6361368815104166
 30
0.0
 10
-51.581261528862839
 20
0.7091729058159721
 30
0.0
 10
-51.765574137369789
 20
0.7091729058159721
 30
0.0
 10
-51.949886745876732
 20
0.7091729058159721
 30
0.0
 10
-52.126620144314231
 20
0.6361368815104166
 30
0.0
 10
-52.257017008463535
 20
0.5055677625868055
 30
0.0
 10
-52.387241617838534
 20
0.3753431532118055
 30
0.0
 10
-52.460449896918398
 20
0.1986097547743055
 30
0.0
 10
-52.460449896918398
 20
0.0142971462673611
 30
0.0
 10
-52.460622151692704
 20
-0.1700154622395833
 30
0.0
 10
-52.387413872612839
 20
-0.3467488606770833
 30
0.0
 10
-52.257017008463535
 20
-0.4773179796006944
 30
0.0
 10
-52.126792399088536
 20
-0.6078870985243055
 30
0.0
 10
-51.949886745876732
 20
-0.680923122829861
 30
0.0
 10
-51.765574137369789
 20
-0.6812676323784722
 30
0.0
  0
ENDBLK
  5
A7
100
AcDbEntity
  8
LAYER_1
100
AcDbBlockEnd
  0
ENDSEC
  0
SECTION
  2
ENTITIES
  0
LINE
  5
1CC
100
AcDbEntity
  8
LAYER_1
 62
     7
100
AcDbLine
 10
191.171105
 20
97.445904
 30
0.0
 11
71.28316
 21
97.445904
 31
0.0
  0
POLYLINE
  5
1C7
100
AcDbEntity
  8
LAYER_1
 62
     7
100
AcDb2dPolyline
 66
     1
 10
0.0
 20
0.0
 30
0.0
  0
VERTEX
  5
1C8
100
AcDbEntity
  8
LAYER_1
 62
     7
100
AcDbVertex
100
AcDb2dVertex
 10
74.177384
 20
102.125722
 30
0.0
  0
VERTEX
  5
1C9
100
AcDbEntity
  8
LAYER_1
 62
     7
100
AcDbVertex
100
AcDb2dVertex
 10
74.177384
 20
89.301698
 30
0.0
  0
VERTEX
  5
1CA
100
AcDbEntity
  8
LAYER_1
 62
     7
100
AcDbVertex
100
AcDb2dVertex
 10
63.15239
 20
89.301698
 30
0.0
  0
SEQEND
  5
1CB
100
AcDbEntity
  8
LAYER_1
 62
     7
  0
POLYLINE
  5
1C1
100
AcDbEntity
  8
LAYER_1
 62
     7
100
AcDb2dPolyline
 66
     1
 10
0.0
 20
0.0
 30
0.0
  0
VERTEX
  5
1C2
100
AcDbEntity
  8
LAYER_1
 62
     7
100
AcDbVertex
100
AcDb2dVertex
 10
139.923931
 20
96.351053
 30
0.0
  0
VERTEX
  5
1C3
100
AcDbEntity
  8
LAYER_1
 62
     7
100
AcDbVertex
100
AcDb2dVertex
 10
139.923931
 20
78.728356
 30
0.0
  0
VERTEX
  5
1C4
100
AcDbEntity
  8
LAYER_1
 62
     7
100
AcDbVertex
100
AcDb2dVertex
 10
65.968928
 20
78.728356
 30
0.0
  0
VERTEX
  5
1C5
100
AcDbEntity
  8
LAYER_1
 62
     7
100
AcDbVertex
100
AcDb2dVertex
 10
65.968928
 20
102.388238
 30
0.0
  0
SEQEND
  5
1C6
100
AcDbEntity
  8
LAYER_1
 62
     7
  0
MTEXT
  5
1C0
100
AcDbEntity
  8
LAYER_1
 62
     7
100
AcDbMText
 10
23.223827
 20
128.185457
 30
0.0
 40
2.524645
 41
0.0
 71
     1
 72
     2
  1
\W0.50;\fMS Gothic|b0|i0|c128;水上400以上
  7
KANJISTD
210
0.0
220
0.0
230
1.0
 11
0.0
 21
1.0
 31
0.0
 73
     1
 44
1.0
  0
POLYLINE
  5
1BA
100
AcDbEntity
  8
LAYER_1
 62
     7
100
AcDb2dPolyline
 66
     1
 10
0.0
 20
0.0
 30
0.0
  0
VERTEX
  5
1BB
100
AcDbEntity
  8
LAYER_1
 62
     7
100
AcDbVertex
100
AcDb2dVertex
 10
39.361249
 20
178.416328
 30
0.0
  0
VERTEX
  5
1BC
100
AcDbEntity
  8
LAYER_1
 62
     7
100
AcDbVertex
100
AcDb2dVertex
 10
26.312778
 20
178.416328
 30
0.0
  0
VERTEX
  5
1BD
100
AcDbEntity
  8
LAYER_1
 62
     7
100
AcDbVertex
100
AcDb2dVertex
 10
26.312778
 20
94.922371
 30
0.0
  0
VERTEX
  5
1BE
100
AcDbEntity
  8
LAYER_1
 62
     7
100
AcDbVertex
100
AcDb2dVertex
 10
62.599452
 20
94.922371
 30
0.0
  0
SEQEND
  5
1BF
100
AcDbEntity
  8
LAYER_1
 62
     7
  0
POLYLINE
  5
1B5
100
AcDbEntity
  8
LAYER_1
 62
     7
100
AcDb2dPolyline
 66
     1
 10
0.0
 20
0.0
 30
0.0
  0
VERTEX
  5
1B6
100
AcDbEntity
  8
LAYER_1
 62
     7
100
AcDbVertex
100
AcDb2dVertex
 10
26.808011
 20
176.568206
 30
0.0
  0
VERTEX
  5
1B7
100
AcDbEntity
  8
LAYER_1
 62
     7
100
AcDbVertex
100
AcDb2dVertex
 10
26.312778
 20
178.416328
 30
0.0
  0
VERTEX
  5
1B8
100
AcDbEntity
  8
LAYER_1
 62
     7
100
AcDbVertex
100
AcDb2dVertex
 10
25.817718
 20
176.568206
 30
0.0
  0
SEQEND
  5
1B9
100
AcDbEntity
  8
LAYER_1
 62
     7
  0
POLYLINE
  5
1B0
100
AcDbEntity
  8
LAYER_1
 62
     7
100
AcDb2dPolyline
 66
     1
 10
0.0
 20
0.0
 30
0.0
  0
VERTEX
  5
1B1
100
AcDbEntity
  8
LAYER_1
 62
     7
100
AcDbVertex
100
AcDb2dVertex
 10
25.817718
 20
96.770321
 30
0.0
  0
VERTEX
  5
1B2
100
AcDbEntity
  8
LAYER_1
 62
     7
100
AcDbVertex
100
AcDb2dVertex
 10
26.312778
 20
94.922371
 30
0.0
  0
VERTEX
  5
1B3
100
AcDbEntity
  8
LAYER_1
 62
     7
100
AcDbVertex
100
AcDb2dVertex
 10
26.808011
 20
96.770321
 30
0.0
  0
SEQEND
  5
1B4
100
AcDbEntity
  8
LAYER_1
 62
     7
  0
MTEXT
  5
1AF
100
AcDbEntity
  8
LAYER_1
 62
     7
100
AcDbMText
 10
180.153689
 20
128.721593
 30
0.0
 40
2.524645
 41
0.0
 71
     1
 72
     2
  1
\W0.50;\fMS Gothic|b0|i0|c128;ポリエチレンフィルム(t=0.15)
  7
KANJISTD
210
0.0
220
0.0
230
1.0
 11
1.000001
 21
0.0
 31
0.0
 73
     1
 44
1.0
  0
MTEXT
  5
1AE
100
AcDbEntity
  8
LAYER_1
 62
     7
100
AcDbMText
 10
17.329864
 20
224.301462
 30
0.0
 40
3.96728
 41
0.0
 71
     1
 72
     2
  1
\W0.50;\fMS Gothic|b0|i0|c128;金属笠木タイプ　取付金具分離方式　
  7
KANJISTD
210
0.0
220
0.0
230
1.0
 11
1.000001
 21
0.0
 31
0.0
 73
     1
 44
1.0
  0
MTEXT
  5
1AD
100
AcDbEntity
  8
LAYER_1
 62
     7
100
AcDbMText
 10
4.938889
 20
74.84719
 30
0.0
 40
2.524645
 41
0.0
 71
     1
 72
     2
  1
\W0.50;\fMS Gothic|b0|i0|c128;(数字)は、参考寸法。
  7
KANJISTD
210
0.0
220
0.0
230
1.0
 11
1.000001
 21
0.0
 31
0.0
 73
     1
 44
1.0
  0
SPLINE
  5
1AC
100
AcDbEntity
  8
LAYER_1
 62
     7
100
AcDbSpline
210
0.0
220
0.0
230
1.0
 70
     8
 71
     3
 72
    17
 73
    13
 74
     0
 42
0.00000001
 43
0.00000001
 40
0.0
 40
0.0
 40
0.0
 40
0.0
 40
1.0
 40
1.0
 40
1.0
 40
2.0
 40
2.0
 40
2.0
 40
3.0
 40
3.0
 40
3.0
 40
4.0
 40
4.0
 40
4.0
 40
4.0
 10
71.152590603298606
 20
178.78891465928817
 30
0.0
 10
71.22631564670138
 20
178.85540500217013
 30
0.0
 10
71.268862575954856
 20
178.94962836371525
 30
0.0
 10
71.269551595052079
 20
179.04901936848955
 30
0.0
 10
71.268173556857633
 20
179.24039442274304
 30
0.0
 10
71.113488769531244
 20
179.39507921006944
 30
0.0
 10
70.922113715277774
 20
179.39645724826389
 30
0.0
 10
70.730566406249991
 20
179.39507921006944
 30
0.0
 10
70.575881618923603
 20
179.24039442274304
 30
0.0
 10
70.574503580729157
 20
179.04901936848955
 30
0.0
 10
70.663731553819431
 20
178.81888699001735
 30
0.0
 10
70.921252441406239
 20
178.70295952690969
 30
0.0
 10
71.152590603298606
 20
178.78891465928817
 30
0.0
  0
POLYLINE
  5
1A6
100
AcDbEntity
  8
LAYER_1
  6
AI9-LType1
 62
     7
100
AcDb2dPolyline
 66
     1
 10
0.0
 20
0.0
 30
0.0
  0
VERTEX
  5
1A7
100
AcDbEntity
  8
LAYER_1
  6
AI9-LType1
 62
     7
100
AcDbVertex
100
AcDb2dVertex
 10
76.318856
 20
178.99097
 30
0.0
  0
VERTEX
  5
1A8
100
AcDbEntity
  8
LAYER_1
  6
AI9-LType1
 62
     7
100
AcDbVertex
100
AcDb2dVertex
 10
66.484831
 20
178.99097
 30
0.0
  0
VERTEX
  5
1A9
100
AcDbEntity
  8
LAYER_1
  6
AI9-LType1
 62
     7
100
AcDbVertex
100
AcDb2dVertex
 10
66.484831
 20
181.01014
 30
0.0
  0
VERTEX
  5
1AA
100
AcDbEntity
  8
LAYER_1
  6
AI9-LType1
 62
     7
100
AcDbVertex
100
AcDb2dVertex
 10
54.426308
 20
181.01014
 30
0.0
  0
SEQEND
  5
1AB
100
AcDbEntity
  8
LAYER_1
  6
AI9-LType1
 62
     7
  0
POLYLINE
  5
19B
100
AcDbEntity
  8
LAYER_1
 62
     7
100
AcDb2dPolyline
 66
     1
 10
0.0
 20
0.0
 30
0.0
 70
     1
  0
VERTEX
  5
19C
100
AcDbEntity
  8
LAYER_1
 62
     7
100
AcDbVertex
100
AcDb2dVertex
 10
76.353307
 20
173.070401
 30
0.0
  0
VERTEX
  5
19D
100
AcDbEntity
  8
LAYER_1
 62
     7
100
AcDbVertex
100
AcDb2dVertex
 10
76.352101
 20
178.421151
 30
0.0
  0
VERTEX
  5
19E
100
AcDbEntity
  8
LAYER_1
 62
     7
100
AcDbVertex
100
AcDb2dVertex
 10
72.289472
 20
178.421151
 30
0.0
  0
VERTEX
  5
19F
100
AcDbEntity
  8
LAYER_1
 62
     7
100
AcDbVertex
100
AcDb2dVertex
 10
72.289472
 20
173.070401
 30
0.0
  0
VERTEX
  5
1A0
100
AcDbEntity
  8
LAYER_1
 62
     7
100
AcDbVertex
100
AcDb2dVertex
 10
72.655858
 20
173.070401
 30
0.0
  0
VERTEX
  5
1A1
100
AcDbEntity
  8
LAYER_1
 62
     7
100
AcDbVertex
100
AcDb2dVertex
 10
72.655858
 20
178.054765
 30
0.0
  0
VERTEX
  5
1A2
100
AcDbEntity
  8
LAYER_1
 62
     7
100
AcDbVertex
100
AcDb2dVertex
 10
75.986749
 20
178.054765
 30
0.0
  0
VERTEX
  5
1A3
100
AcDbEntity
  8
LAYER_1
 62
     7
100
AcDbVertex
100
AcDb2dVertex
 10
75.986749
 20
173.070401
 30
0.0
  0
SEQEND
  5
1A4
100
AcDbEntity
  8
LAYER_1
 62
     7
  0
MTEXT
  5
19A
100
AcDbEntity
  8
LAYER_1
 62
     7
100
AcDbMText
 10
60.899814
 20
207.950349
 30
0.0
 40
2.524645
 41
0.0
 71
     1
 72
     2
  1
\W0.50;\fMS Gothic|b0|i0|c128;ゴムアスファルト系シール材
  7
KANJISTD
210
0.0
220
0.0
230
1.0
 11
1.000001
 21
0.0
 31
0.0
 73
     1
 44
1.0
  0
MTEXT
  5
199
100
AcDbEntity
  8
LAYER_1
 62
     7
100
AcDbMText
 10
65.916045
 20
204.193077
 30
0.0
 40
2.531312
 41
0.0
 71
     1
 72
     2
  1
\W0.50;\fMS Gothic|b0|i0|c128;押え金物
  7
KANJISTD
210
0.0
220
0.0
230
1.0
 11
1.000001
 21
0.0
 31
0.0
 73
     1
 44
1.0
  0
SPLINE
  5
198
100
AcDbEntity
  8
LAYER_1
 62
     7
100
AcDbSpline
210
0.0
220
0.0
230
1.0
 70
     8
 71
     3
 72
    17
 73
    13
 74
     0
 42
0.00000001
 43
0.00000001
 40
0.0
 40
0.0
 40
0.0
 40
0.0
 40
1.0
 40
1.0
 40
1.0
 40
2.0
 40
2.0
 40
2.0
 40
3.0
 40
3.0
 40
3.0
 40
4.0
 40
4.0
 40
4.0
 40
4.0
 10
51.309701877170134
 20
180.6780327690972
 30
0.0
 10
51.383426920572909
 20
180.74452311197916
 30
0.0
 10
51.425973849826384
 20
180.83891872829861
 30
0.0
 10
51.426662868923607
 20
180.93813747829859
 30
0.0
 10
51.425284830729161
 20
181.12951253255207
 30
0.0
 10
51.270427788628467
 20
181.28436957465277
 30
0.0
 10
51.079052734374997
 20
181.28574761284722
 30
0.0
 10
50.88767768012152
 20
181.28436957465277
 30
0.0
 10
50.732820638020826
 20
181.12951253255207
 30
0.0
 10
50.731442599826387
 20
180.93813747829859
 30
0.0
 10
50.820670572916661
 20
180.70800509982638
 30
0.0
 10
51.078191460503469
 20
180.59207763671873
 30
0.0
 10
51.309701877170134
 20
180.6780327690972
 30
0.0
  0
LINE
  5
197
100
AcDbEntity
  8
LAYER_1
 62
     7
100
AcDbLine
 10
133.281098
 20
113.355699
 30
0.0
 11
138.406367
 21
113.355699
 31
0.0
  0
LINE
  5
196
100
AcDbEntity
  8
LAYER_1
 62
     7
100
AcDbLine
 10
141.698844
 20
113.355699
 30
0.0
 11
146.824457
 21
113.355699
 31
0.0
  0
LINE
  5
195
100
AcDbEntity
  8
LAYER_1
 62
     7
100
AcDbLine
 10
86.467763
 20
102.922572
 30
0.0
 11
86.467763
 21
98.019857
 31
0.0
  0
POLYLINE
  5
190
100
AcDbEntity
  8
LAYER_1
 62
     7
100
AcDb2dPolyline
 66
     1
 10
0.0
 20
0.0
 30
0.0
  0
VERTEX
  5
191
100
AcDbEntity
  8
LAYER_1
 62
     7
100
AcDbVertex
100
AcDb2dVertex
 10
134.853784
 20
101.806706
 30
0.0
  0
VERTEX
  5
192
100
AcDbEntity
  8
LAYER_1
 62
     7
100
AcDbVertex
100
AcDb2dVertex
 10
128.123446
 20
113.744306
 30
0.0
  0
VERTEX
  5
193
100
AcDbEntity
  8
LAYER_1
 62
     7
100
AcDbVertex
100
AcDb2dVertex
 10
125.948557
 20
113.744306
 30
0.0
  0
SEQEND
  5
194
100
AcDbEntity
  8
LAYER_1
 62
     7
  0
SPLINE
  5
18F
100
AcDbEntity
  8
LAYER_1
 62
     7
100
AcDbSpline
210
0.0
220
0.0
230
1.0
 70
     8
 71
     3
 72
    17
 73
    13
 74
     0
 42
0.00000001
 43
0.00000001
 40
0.0
 40
0.0
 40
0.0
 40
0.0
 40
1.0
 40
1.0
 40
1.0
 40
2.0
 40
2.0
 40
2.0
 40
3.0
 40
3.0
 40
3.0
 40
4.0
 40
4.0
 40
4.0
 40
4.0
 10
134.89994845920137
 20
101.44393717447916
 30
0.0
 10
134.70874565972221
 20
101.44531521267361
 30
0.0
 10
134.55371636284721
 20
101.59999999999999
 30
0.0
 10
134.55233832465277
 20
101.79154730902776
 30
0.0
 10
134.64156629774305
 20
102.0216796875
 30
0.0
 10
134.89891493055555
 20
102.13743489583332
 30
0.0
 10
135.1304253472222
 20
102.05165201822916
 30
0.0
 10
135.20415039062499
 20
101.98516167534721
 30
0.0
 10
135.24686957465278
 20
101.89076605902777
 30
0.0
 10
135.24755859375
 20
101.79154730902776
 30
0.0
 10
135.24618055555555
 20
101.59999999999999
 30
0.0
 10
135.09115125868055
 20
101.44531521267361
 30
0.0
 10
134.89994845920137
 20
101.44393717447916
 30
0.0
  0
POLYLINE
  5
18A
100
AcDbEntity
  8
LAYER_1
 62
     7
100
AcDb2dPolyline
 66
     1
 10
0.0
 20
0.0
 30
0.0
  0
VERTEX
  5
18B
100
AcDbEntity
  8
LAYER_1
 62
     7
100
AcDbVertex
100
AcDb2dVertex
 10
139.934266
 20
105.444038
 30
0.0
  0
VERTEX
  5
18C
100
AcDbEntity
  8
LAYER_1
 62
     7
100
AcDbVertex
100
AcDb2dVertex
 10
131.985742
 20
119.340519
 30
0.0
  0
VERTEX
  5
18D
100
AcDbEntity
  8
LAYER_1
 62
     7
100
AcDbVertex
100
AcDb2dVertex
 10
129.810509
 20
119.340519
 30
0.0
  0
SEQEND
  5
18E
100
AcDbEntity
  8
LAYER_1
 62
     7
  0
SPLINE
  5
189
100
AcDbEntity
  8
LAYER_1
 62
     7
100
AcDbSpline
210
0.0
220
0.0
230
1.0
 70
     8
 71
     3
 72
    17
 73
    13
 74
     0
 42
0.00000001
 43
0.00000001
 40
0.0
 40
0.0
 40
0.0
 40
0.0
 40
1.0
 40
1.0
 40
1.0
 40
2.0
 40
2.0
 40
2.0
 40
3.0
 40
3.0
 40
3.0
 40
4.0
 40
4.0
 40
4.0
 40
4.0
 10
139.98043077256943
 20
105.08092447916665
 30
0.0
 10
139.78922797309028
 20
105.0823025173611
 30
0.0
 10
139.63454318576387
 20
105.2373318142361
 30
0.0
 10
139.63316514756943
 20
105.42853461371527
 30
0.0
 10
139.72204861111109
 20
105.65866699218749
 30
0.0
 10
139.97974175347221
 20
105.77442220052082
 30
0.0
 10
140.21125217013886
 20
105.68863932291666
 30
0.0
 10
140.28497721354165
 20
105.62214898003471
 30
0.0
 10
140.32735188802081
 20
105.52775336371526
 30
0.0
 10
140.32804090711804
 20
105.42853461371527
 30
0.0
 10
140.32666286892359
 20
105.2373318142361
 30
0.0
 10
140.17197808159722
 20
105.0823025173611
 30
0.0
 10
139.98043077256943
 20
105.08092447916665
 30
0.0
  0
POLYLINE
  5
184
100
AcDbEntity
  8
LAYER_1
 62
     7
100
AcDb2dPolyline
 66
     1
 10
0.0
 20
0.0
 30
0.0
  0
VERTEX
  5
185
100
AcDbEntity
  8
LAYER_1
 62
     7
100
AcDbVertex
100
AcDb2dVertex
 10
75.769708
 20
110.046685
 30
0.0
  0
VERTEX
  5
186
100
AcDbEntity
  8
LAYER_1
 62
     7
100
AcDbVertex
100
AcDb2dVertex
 10
88.124337
 20
131.657769
 30
0.0
  0
VERTEX
  5
187
100
AcDbEntity
  8
LAYER_1
 62
     7
100
AcDbVertex
100
AcDb2dVertex
 10
90.299398
 20
131.657769
 30
0.0
  0
SEQEND
  5
188
100
AcDbEntity
  8
LAYER_1
 62
     7
  0
SPLINE
  5
183
100
AcDbEntity
  8
LAYER_1
 62
     7
100
AcDbSpline
210
0.0
220
0.0
230
1.0
 70
     8
 71
     3
 72
    17
 73
    13
 74
     0
 42
0.00000001
 43
0.00000001
 40
0.0
 40
0.0
 40
0.0
 40
0.0
 40
1.0
 40
1.0
 40
1.0
 40
2.0
 40
2.0
 40
2.0
 40
3.0
 40
3.0
 40
3.0
 40
4.0
 40
4.0
 40
4.0
 40
4.0
 10
75.95419243706597
 20
109.77107747395833
 30
0.0
 10
76.027745225694431
 20
109.83756781684026
 30
0.0
 10
76.070292154947907
 20
109.93196343315971
 30
0.0
 10
76.071153428819443
 20
110.03118218315971
 30
0.0
 10
76.069775390624997
 20
110.22238498263889
 30
0.0
 10
75.914918348524296
 20
110.37741427951389
 30
0.0
 10
75.723543294270826
 20
110.37879231770832
 30
0.0
 10
75.532168240017356
 20
110.37741427951389
 30
0.0
 10
75.377311197916654
 20
110.22238498263889
 30
0.0
 10
75.375933159722209
 20
110.03118218315971
 30
0.0
 10
75.465333387586796
 20
109.80104980468749
 30
0.0
 10
75.722682020399304
 20
109.68529459635415
 30
0.0
 10
75.95419243706597
 20
109.77107747395833
 30
0.0
  0
POLYLINE
  5
17E
100
AcDbEntity
  8
LAYER_1
 62
     7
100
AcDb2dPolyline
 66
     1
 10
0.0
 20
0.0
 30
0.0
  0
VERTEX
  5
17F
100
AcDbEntity
  8
LAYER_1
 62
     7
100
AcDbVertex
100
AcDb2dVertex
 10
67.69871
 20
106.203337
 30
0.0
  0
VERTEX
  5
180
100
AcDbEntity
  8
LAYER_1
 62
     7
100
AcDbVertex
100
AcDb2dVertex
 10
88.152414
 20
142.072293
 30
0.0
  0
VERTEX
  5
181
100
AcDbEntity
  8
LAYER_1
 62
     7
100
AcDbVertex
100
AcDb2dVertex
 10
90.327475
 20
142.072293
 30
0.0
  0
SEQEND
  5
182
100
AcDbEntity
  8
LAYER_1
 62
     7
  0
SPLINE
  5
17D
100
AcDbEntity
  8
LAYER_1
 62
     7
100
AcDbSpline
210
0.0
220
0.0
230
1.0
 70
     8
 71
     3
 72
    17
 73
    13
 74
     0
 42
0.00000001
 43
0.00000001
 40
0.0
 40
0.0
 40
0.0
 40
0.0
 40
1.0
 40
1.0
 40
1.0
 40
2.0
 40
2.0
 40
2.0
 40
3.0
 40
3.0
 40
3.0
 40
4.0
 40
4.0
 40
4.0
 40
4.0
 10
67.883367241753461
 20
105.92772894965277
 30
0.0
 10
67.956920030381937
 20
105.99421929253471
 30
0.0
 10
67.9992947048611
 20
106.08861490885415
 30
0.0
 10
68.000155978732636
 20
106.18783365885416
 30
0.0
 10
67.99877794053819
 20
106.37938096788193
 30
0.0
 10
67.843920898437489
 20
106.53406575520832
 30
0.0
 10
67.652545844184019
 20
106.53544379340276
 30
0.0
 10
67.461343044704861
 20
106.53406575520832
 30
0.0
 10
67.30648600260416
 20
106.37938096788193
 30
0.0
 10
67.305107964409714
 20
106.18783365885416
 30
0.0
 10
67.394335937499989
 20
105.95770128038194
 30
0.0
 10
67.651856825086796
 20
105.8419460720486
 30
0.0
 10
67.883367241753461
 20
105.92772894965277
 30
0.0
  0
POLYLINE
  5
178
100
AcDbEntity
  8
LAYER_1
 62
     7
100
AcDb2dPolyline
 66
     1
 10
0.0
 20
0.0
 30
0.0
  0
VERTEX
  5
179
100
AcDbEntity
  8
LAYER_1
 62
     7
100
AcDbVertex
100
AcDb2dVertex
 10
74.251109
 20
104.206559
 30
0.0
  0
VERTEX
  5
17A
100
AcDbEntity
  8
LAYER_1
 62
     7
100
AcDbVertex
100
AcDb2dVertex
 10
86.605739
 20
125.817988
 30
0.0
  0
VERTEX
  5
17B
100
AcDbEntity
  8
LAYER_1
 62
     7
100
AcDbVertex
100
AcDb2dVertex
 10
88.7808
 20
125.817988
 30
0.0
  0
SEQEND
  5
17C
100
AcDbEntity
  8
LAYER_1
 62
     7
  0
SPLINE
  5
177
100
AcDbEntity
  8
LAYER_1
 62
     7
100
AcDbSpline
210
0.0
220
0.0
230
1.0
 70
     8
 71
     3
 72
    17
 73
    13
 74
     0
 42
0.00000001
 43
0.00000001
 40
0.0
 40
0.0
 40
0.0
 40
0.0
 40
1.0
 40
1.0
 40
1.0
 40
2.0
 40
2.0
 40
2.0
 40
3.0
 40
3.0
 40
3.0
 40
4.0
 40
4.0
 40
4.0
 40
4.0
 10
74.435766601562491
 20
103.93095160590276
 30
0.0
 10
74.509319390190967
 20
103.99778645833332
 30
0.0
 10
74.55169406467013
 20
104.09218207465277
 30
0.0
 10
74.552555338541666
 20
104.19140082465277
 30
0.0
 10
74.55117730034722
 20
104.38260362413193
 30
0.0
 10
74.396492513020831
 20
104.53728841145832
 30
0.0
 10
74.204945203993049
 20
104.53901095920138
 30
0.0
 10
74.013570149739579
 20
104.53728841145832
 30
0.0
 10
73.85888536241319
 20
104.38260362413193
 30
0.0
 10
73.857507324218744
 20
104.19140082465277
 30
0.0
 10
73.94656304253472
 20
103.96126844618054
 30
0.0
 10
74.204256184895826
 20
103.8451687282986
 30
0.0
 10
74.435766601562491
 20
103.93095160590276
 30
0.0
  0
POLYLINE
  5
172
100
AcDbEntity
  8
LAYER_1
 62
     7
100
AcDb2dPolyline
 66
     1
 10
0.0
 20
0.0
 30
0.0
  0
VERTEX
  5
173
100
AcDbEntity
  8
LAYER_1
 62
     7
100
AcDbVertex
100
AcDb2dVertex
 10
51.07888
 20
180.932453
 30
0.0
  0
VERTEX
  5
174
100
AcDbEntity
  8
LAYER_1
 62
     7
100
AcDbVertex
100
AcDb2dVertex
 10
63.377182
 20
203.059785
 30
0.0
  0
VERTEX
  5
175
100
AcDbEntity
  8
LAYER_1
 62
     7
100
AcDbVertex
100
AcDb2dVertex
 10
65.552243
 20
203.059785
 30
0.0
  0
SEQEND
  5
176
100
AcDbEntity
  8
LAYER_1
 62
     7
  0
POLYLINE
  5
16D
100
AcDbEntity
  8
LAYER_1
 62
     7
100
AcDb2dPolyline
 66
     1
 10
0.0
 20
0.0
 30
0.0
  0
VERTEX
  5
16E
100
AcDbEntity
  8
LAYER_1
 62
     7
100
AcDbVertex
100
AcDb2dVertex
 10
42.96103
 20
179.629346
 30
0.0
  0
VERTEX
  5
16F
100
AcDbEntity
  8
LAYER_1
 62
     7
100
AcDbVertex
100
AcDb2dVertex
 10
58.277752
 20
206.49954
 30
0.0
  0
VERTEX
  5
170
100
AcDbEntity
  8
LAYER_1
 62
     7
100
AcDbVertex
100
AcDb2dVertex
 10
60.452641
 20
206.49954
 30
0.0
  0
SEQEND
  5
171
100
AcDbEntity
  8
LAYER_1
 62
     7
  0
SPLINE
  5
16C
100
AcDbEntity
  8
LAYER_1
 62
     7
100
AcDbSpline
210
0.0
220
0.0
230
1.0
 70
     8
 71
     3
 72
    17
 73
    13
 74
     0
 42
0.00000001
 43
0.00000001
 40
0.0
 40
0.0
 40
0.0
 40
0.0
 40
1.0
 40
1.0
 40
1.0
 40
2.0
 40
2.0
 40
2.0
 40
3.0
 40
3.0
 40
3.0
 40
4.0
 40
4.0
 40
4.0
 40
4.0
 10
43.145514594184021
 20
179.3539103190104
 30
0.0
 10
43.219067382812497
 20
179.42040066189236
 30
0.0
 10
43.261614312065966
 20
179.51479627821178
 30
0.0
 10
43.262475585937494
 20
179.61401502821178
 30
0.0
 10
43.261097547743049
 20
179.80539008246527
 30
0.0
 10
43.106240505642354
 20
179.96024712456597
 30
0.0
 10
42.914865451388884
 20
179.96145290798609
 30
0.0
 10
42.723318142361109
 20
179.96007486979164
 30
0.0
 10
42.56863335503472
 20
179.80539008246527
 30
0.0
 10
42.567255316840274
 20
179.61401502821178
 30
0.0
 10
42.656483289930549
 20
179.38388264973958
 30
0.0
 10
42.914004177517356
 20
179.26795518663192
 30
0.0
 10
43.145514594184021
 20
179.3539103190104
 30
0.0
  0
POLYLINE
  5
167
100
AcDbEntity
  8
LAYER_1
 62
     7
100
AcDb2dPolyline
 66
     1
 10
0.0
 20
0.0
 30
0.0
  0
VERTEX
  5
168
100
AcDbEntity
  8
LAYER_1
 62
     7
100
AcDbVertex
100
AcDb2dVertex
 10
70.829785
 20
179.029382
 30
0.0
  0
VERTEX
  5
169
100
AcDbEntity
  8
LAYER_1
 62
     7
100
AcDbVertex
100
AcDb2dVertex
 10
78.159915
 20
191.978635
 30
0.0
  0
VERTEX
  5
16A
100
AcDbEntity
  8
LAYER_1
 62
     7
100
AcDbVertex
100
AcDb2dVertex
 10
80.334804
 20
191.978635
 30
0.0
  0
SEQEND
  5
16B
100
AcDbEntity
  8
LAYER_1
 62
     7
  0
POLYLINE
  5
162
100
AcDbEntity
  8
LAYER_1
 62
     7
100
AcDb2dPolyline
 66
     1
 10
0.0
 20
0.0
 30
0.0
  0
VERTEX
  5
163
100
AcDbEntity
  8
LAYER_1
 62
     7
100
AcDbVertex
100
AcDb2dVertex
 10
64.802246
 20
182.873248
 30
0.0
  0
VERTEX
  5
164
100
AcDbEntity
  8
LAYER_1
 62
     7
100
AcDbVertex
100
AcDb2dVertex
 10
73.819611
 20
198.859696
 30
0.0
  0
VERTEX
  5
165
100
AcDbEntity
  8
LAYER_1
 62
     7
100
AcDbVertex
100
AcDb2dVertex
 10
75.994672
 20
198.859696
 30
0.0
  0
SEQEND
  5
166
100
AcDbEntity
  8
LAYER_1
 62
     7
  0
SPLINE
  5
161
100
AcDbEntity
  8
LAYER_1
 62
     7
100
AcDbSpline
210
0.0
220
0.0
230
1.0
 70
     8
 71
     3
 72
    17
 73
    13
 74
     0
 42
0.00000001
 43
0.00000001
 40
0.0
 40
0.0
 40
0.0
 40
0.0
 40
1.0
 40
1.0
 40
1.0
 40
2.0
 40
2.0
 40
2.0
 40
3.0
 40
3.0
 40
3.0
 40
4.0
 40
4.0
 40
4.0
 40
4.0
 10
64.986730957031241
 20
182.59781222873264
 30
0.0
 10
65.060456000434016
 20
182.66447482638887
 30
0.0
 10
65.10265842013888
 20
182.75887044270831
 30
0.0
 10
65.103691948784714
 20
182.85808919270832
 30
0.0
 10
65.10214165581597
 20
183.04929199218748
 30
0.0
 10
64.947284613715269
 20
183.20380452473955
 30
0.0
 10
64.756081814236111
 20
183.2050103081597
 30
0.0
 10
64.56487901475694
 20
183.20380452473955
 30
0.0
 10
64.410021972656239
 20
183.04929199218748
 30
0.0
 10
64.408471679687494
 20
182.85808919270832
 30
0.0
 10
64.497699652777769
 20
182.62778455946179
 30
0.0
 10
64.755220540364576
 20
182.51202935112846
 30
0.0
 10
64.986730957031241
 20
182.59781222873264
 30
0.0
  0
POLYLINE
  5
15C
100
AcDbEntity
  8
LAYER_1
 62
     7
100
AcDb2dPolyline
 66
     1
 10
0.0
 20
0.0
 30
0.0
  0
VERTEX
  5
15D
100
AcDbEntity
  8
LAYER_1
 62
     7
100
AcDbVertex
100
AcDb2dVertex
 10
76.153491
 20
176.505333
 30
0.0
  0
VERTEX
  5
15E
100
AcDbEntity
  8
LAYER_1
 62
     7
100
AcDbVertex
100
AcDb2dVertex
 10
81.440162
 20
185.836202
 30
0.0
  0
VERTEX
  5
15F
100
AcDbEntity
  8
LAYER_1
 62
     7
100
AcDbVertex
100
AcDb2dVertex
 10
83.615051
 20
185.836202
 30
0.0
  0
SEQEND
  5
160
100
AcDbEntity
  8
LAYER_1
 62
     7
  0
SPLINE
  5
15B
100
AcDbEntity
  8
LAYER_1
 62
     7
100
AcDbSpline
210
0.0
220
0.0
230
1.0
 70
     8
 71
     3
 72
    17
 73
    13
 74
     0
 42
0.00000001
 43
0.00000001
 40
0.0
 40
0.0
 40
0.0
 40
0.0
 40
1.0
 40
1.0
 40
1.0
 40
2.0
 40
2.0
 40
2.0
 40
3.0
 40
3.0
 40
3.0
 40
4.0
 40
4.0
 40
4.0
 40
4.0
 10
76.337803819444431
 20
176.22972547743055
 30
0.0
 10
76.41152886284722
 20
176.29621582031248
 30
0.0
 10
76.453903537326383
 20
176.39061143663193
 30
0.0
 10
76.454764811197904
 20
176.48983018663193
 30
0.0
 10
76.453386773003459
 20
176.68120524088539
 30
0.0
 10
76.298529730902771
 20
176.83606228298609
 30
0.0
 10
76.107154676649301
 20
176.83744032118054
 30
0.0
 10
75.91595187717013
 20
176.83589002821179
 30
0.0
 10
75.761094835069443
 20
176.68103298611109
 30
0.0
 10
75.759889051649296
 20
176.48983018663193
 30
0.0
 10
75.848944769965271
 20
176.2596978081597
 30
0.0
 10
76.106465657552079
 20
176.14377034505208
 30
0.0
 10
76.337803819444431
 20
176.22972547743055
 30
0.0
  0
POLYLINE
  5
156
100
AcDbEntity
  8
LAYER_1
 62
     7
100
AcDb2dPolyline
 66
     1
 10
0.0
 20
0.0
 30
0.0
  0
VERTEX
  5
157
100
AcDbEntity
  8
LAYER_1
 62
     7
100
AcDbVertex
100
AcDb2dVertex
 10
74.307437
 20
138.571387
 30
0.0
  0
VERTEX
  5
158
100
AcDbEntity
  8
LAYER_1
 62
     7
100
AcDbVertex
100
AcDb2dVertex
 10
86.662066
 20
160.182987
 30
0.0
  0
VERTEX
  5
159
100
AcDbEntity
  8
LAYER_1
 62
     7
100
AcDbVertex
100
AcDb2dVertex
 10
88.837127
 20
160.182987
 30
0.0
  0
SEQEND
  5
15A
100
AcDbEntity
  8
LAYER_1
 62
     7
  0
SPLINE
  5
155
100
AcDbEntity
  8
LAYER_1
 62
     7
100
AcDbSpline
210
0.0
220
0.0
230
1.0
 70
     8
 71
     3
 72
    17
 73
    13
 74
     0
 42
0.00000001
 43
0.00000001
 40
0.0
 40
0.0
 40
0.0
 40
0.0
 40
1.0
 40
1.0
 40
1.0
 40
2.0
 40
2.0
 40
2.0
 40
3.0
 40
3.0
 40
3.0
 40
4.0
 40
4.0
 40
4.0
 40
4.0
 10
74.491921657986111
 20
138.29612358940972
 30
0.0
 10
74.565646701388886
 20
138.36261393229165
 30
0.0
 10
74.608021375868049
 20
138.4566650390625
 30
0.0
 10
74.60888264973957
 20
138.5562282986111
 30
0.0
 10
74.607504611545139
 20
138.74743109809026
 30
0.0
 10
74.452647569444437
 20
138.90211588541666
 30
0.0
 10
74.261272515190967
 20
138.90349392361111
 30
0.0
 10
74.069897460937497
 20
138.90211588541666
 30
0.0
 10
73.915212673611109
 20
138.74743109809026
 30
0.0
 10
73.913834635416663
 20
138.5562282986111
 30
0.0
 10
74.002890353732639
 20
138.32609592013887
 30
0.0
 10
74.260411241319431
 20
138.20999620225695
 30
0.0
 10
74.491921657986111
 20
138.29612358940972
 30
0.0
  0
LINE
  5
154
100
AcDbEntity
  8
LAYER_1
 62
     7
100
AcDbLine
 10
93.09561
 20
175.871263
 30
0.0
 11
93.09561
 21
165.599022
 31
0.0
  0
POLYLINE
  5
14F
100
AcDbEntity
  8
LAYER_1
 62
     7
100
AcDb2dPolyline
 66
     1
 10
0.0
 20
0.0
 30
0.0
  0
VERTEX
  5
150
100
AcDbEntity
  8
LAYER_1
 62
     7
100
AcDbVertex
100
AcDb2dVertex
 10
36.827209
 20
138.751221
 30
0.0
  0
VERTEX
  5
151
100
AcDbEntity
  8
LAYER_1
 62
     7
100
AcDbVertex
100
AcDb2dVertex
 10
38.675159
 20
139.246625
 30
0.0
  0
VERTEX
  5
152
100
AcDbEntity
  8
LAYER_1
 62
     7
100
AcDbVertex
100
AcDb2dVertex
 10
36.827209
 20
139.741686
 30
0.0
  0
SEQEND
  5
153
100
AcDbEntity
  8
LAYER_1
 62
     7
  0
POLYLINE
  5
14A
100
AcDbEntity
  8
LAYER_1
 62
     7
100
AcDb2dPolyline
 66
     1
 10
0.0
 20
0.0
 30
0.0
  0
VERTEX
  5
14B
100
AcDbEntity
  8
LAYER_1
 62
     7
100
AcDbVertex
100
AcDb2dVertex
 10
62.206539
 20
138.714014
 30
0.0
  0
VERTEX
  5
14C
100
AcDbEntity
  8
LAYER_1
 62
     7
100
AcDbVertex
100
AcDb2dVertex
 10
64.05466
 20
139.208729
 30
0.0
  0
VERTEX
  5
14D
100
AcDbEntity
  8
LAYER_1
 62
     7
100
AcDbVertex
100
AcDb2dVertex
 10
62.206539
 20
139.704134
 30
0.0
  0
SEQEND
  5
14E
100
AcDbEntity
  8
LAYER_1
 62
     7
  0
POLYLINE
  5
145
100
AcDbEntity
  8
LAYER_1
 62
     7
100
AcDb2dPolyline
 66
     1
 10
0.0
 20
0.0
 30
0.0
  0
VERTEX
  5
146
100
AcDbEntity
  8
LAYER_1
 62
     7
100
AcDbVertex
100
AcDb2dVertex
 10
138.012592
 20
78.165771
 30
0.0
  0
VERTEX
  5
147
100
AcDbEntity
  8
LAYER_1
 62
     7
100
AcDbVertex
100
AcDb2dVertex
 10
139.860541
 20
78.660832
 30
0.0
  0
VERTEX
  5
148
100
AcDbEntity
  8
LAYER_1
 62
     7
100
AcDbVertex
100
AcDb2dVertex
 10
138.012592
 20
79.155892
 30
0.0
  0
SEQEND
  5
149
100
AcDbEntity
  8
LAYER_1
 62
     7
  0
POLYLINE
  5
140
100
AcDbEntity
  8
LAYER_1
 62
     7
100
AcDb2dPolyline
 66
     1
 10
0.0
 20
0.0
 30
0.0
  0
VERTEX
  5
141
100
AcDbEntity
  8
LAYER_1
 62
     7
100
AcDbVertex
100
AcDb2dVertex
 10
136.558417
 20
112.860295
 30
0.0
  0
VERTEX
  5
142
100
AcDbEntity
  8
LAYER_1
 62
     7
100
AcDbVertex
100
AcDb2dVertex
 10
138.406367
 20
113.355699
 30
0.0
  0
VERTEX
  5
143
100
AcDbEntity
  8
LAYER_1
 62
     7
100
AcDbVertex
100
AcDb2dVertex
 10
136.558417
 20
113.85076
 30
0.0
  0
SEQEND
  5
144
100
AcDbEntity
  8
LAYER_1
 62
     7
  0
POLYLINE
  5
13B
100
AcDbEntity
  8
LAYER_1
 62
     7
100
AcDb2dPolyline
 66
     1
 10
0.0
 20
0.0
 30
0.0
  0
VERTEX
  5
13C
100
AcDbEntity
  8
LAYER_1
 62
     7
100
AcDbVertex
100
AcDb2dVertex
 10
143.546794
 20
113.85076
 30
0.0
  0
VERTEX
  5
13D
100
AcDbEntity
  8
LAYER_1
 62
     7
100
AcDbVertex
100
AcDb2dVertex
 10
141.698844
 20
113.355699
 30
0.0
  0
VERTEX
  5
13E
100
AcDbEntity
  8
LAYER_1
 62
     7
100
AcDbVertex
100
AcDb2dVertex
 10
143.546794
 20
112.860295
 30
0.0
  0
SEQEND
  5
13F
100
AcDbEntity
  8
LAYER_1
 62
     7
  0
POLYLINE
  5
136
100
AcDbEntity
  8
LAYER_1
 62
     7
100
AcDb2dPolyline
 66
     1
 10
0.0
 20
0.0
 30
0.0
  0
VERTEX
  5
137
100
AcDbEntity
  8
LAYER_1
 62
     7
100
AcDbVertex
100
AcDb2dVertex
 10
64.183851
 20
88.833854
 30
0.0
  0
VERTEX
  5
138
100
AcDbEntity
  8
LAYER_1
 62
     7
100
AcDbVertex
100
AcDb2dVertex
 10
66.031801
 20
89.32857
 30
0.0
  0
VERTEX
  5
139
100
AcDbEntity
  8
LAYER_1
 62
     7
100
AcDbVertex
100
AcDb2dVertex
 10
64.183851
 20
89.823975
 30
0.0
  0
SEQEND
  5
13A
100
AcDbEntity
  8
LAYER_1
 62
     7
  0
POLYLINE
  5
131
100
AcDbEntity
  8
LAYER_1
 62
     7
100
AcDb2dPolyline
 66
     1
 10
0.0
 20
0.0
 30
0.0
  0
VERTEX
  5
132
100
AcDbEntity
  8
LAYER_1
 62
     7
100
AcDbVertex
100
AcDb2dVertex
 10
70.126641
 20
79.212391
 30
0.0
  0
VERTEX
  5
133
100
AcDbEntity
  8
LAYER_1
 62
     7
100
AcDbVertex
100
AcDb2dVertex
 10
68.278692
 20
78.717331
 30
0.0
  0
VERTEX
  5
134
100
AcDbEntity
  8
LAYER_1
 62
     7
100
AcDbVertex
100
AcDb2dVertex
 10
70.126641
 20
78.222271
 30
0.0
  0
SEQEND
  5
135
100
AcDbEntity
  8
LAYER_1
 62
     7
  0
POLYLINE
  5
12C
100
AcDbEntity
  8
LAYER_1
 62
     7
100
AcDb2dPolyline
 66
     1
 10
0.0
 20
0.0
 30
0.0
  0
VERTEX
  5
12D
100
AcDbEntity
  8
LAYER_1
 62
     7
100
AcDbVertex
100
AcDb2dVertex
 10
75.815872
 20
89.812606
 30
0.0
  0
VERTEX
  5
12E
100
AcDbEntity
  8
LAYER_1
 62
     7
100
AcDbVertex
100
AcDb2dVertex
 10
73.967923
 20
89.317546
 30
0.0
  0
VERTEX
  5
12F
100
AcDbEntity
  8
LAYER_1
 62
     7
100
AcDbVertex
100
AcDb2dVertex
 10
75.815872
 20
88.822485
 30
0.0
  0
SEQEND
  5
130
100
AcDbEntity
  8
LAYER_1
 62
     7
  0
POLYLINE
  5
127
100
AcDbEntity
  8
LAYER_1
 62
     7
100
AcDb2dPolyline
 66
     1
 10
0.0
 20
0.0
 30
0.0
  0
VERTEX
  5
128
100
AcDbEntity
  8
LAYER_1
 62
     7
100
AcDbVertex
100
AcDb2dVertex
 10
93.59067
 20
174.023314
 30
0.0
  0
VERTEX
  5
129
100
AcDbEntity
  8
LAYER_1
 62
     7
100
AcDbVertex
100
AcDb2dVertex
 10
93.09561
 20
175.871263
 30
0.0
  0
VERTEX
  5
12A
100
AcDbEntity
  8
LAYER_1
 62
     7
100
AcDbVertex
100
AcDb2dVertex
 10
92.600377
 20
174.023314
 30
0.0
  0
SEQEND
  5
12B
100
AcDbEntity
  8
LAYER_1
 62
     7
  0
POLYLINE
  5
122
100
AcDbEntity
  8
LAYER_1
 62
     7
100
AcDb2dPolyline
 66
     1
 10
0.0
 20
0.0
 30
0.0
  0
VERTEX
  5
123
100
AcDbEntity
  8
LAYER_1
 62
     7
100
AcDbVertex
100
AcDb2dVertex
 10
92.583668
 20
179.242289
 30
0.0
  0
VERTEX
  5
124
100
AcDbEntity
  8
LAYER_1
 62
     7
100
AcDbVertex
100
AcDb2dVertex
 10
93.078729
 20
177.39434
 30
0.0
  0
VERTEX
  5
125
100
AcDbEntity
  8
LAYER_1
 62
     7
100
AcDbVertex
100
AcDb2dVertex
 10
93.573789
 20
179.242289
 30
0.0
  0
SEQEND
  5
126
100
AcDbEntity
  8
LAYER_1
 62
     7
  0
POLYLINE
  5
11D
100
AcDbEntity
  8
LAYER_1
 62
     7
100
AcDb2dPolyline
 66
     1
 10
0.0
 20
0.0
 30
0.0
  0
VERTEX
  5
11E
100
AcDbEntity
  8
LAYER_1
 62
     7
100
AcDbVertex
100
AcDb2dVertex
 10
86.988661
 20
109.062421
 30
0.0
  0
VERTEX
  5
11F
100
AcDbEntity
  8
LAYER_1
 62
     7
100
AcDbVertex
100
AcDb2dVertex
 10
86.493601
 20
107.214472
 30
0.0
  0
VERTEX
  5
120
100
AcDbEntity
  8
LAYER_1
 62
     7
100
AcDbVertex
100
AcDb2dVertex
 10
85.998368
 20
109.062421
 30
0.0
  0
SEQEND
  5
121
100
AcDbEntity
  8
LAYER_1
 62
     7
  0
POLYLINE
  5
118
100
AcDbEntity
  8
LAYER_1
 62
     7
100
AcDb2dPolyline
 66
     1
 10
0.0
 20
0.0
 30
0.0
  0
VERTEX
  5
119
100
AcDbEntity
  8
LAYER_1
 62
     7
100
AcDbVertex
100
AcDb2dVertex
 10
87.033964
 20
101.000898
 30
0.0
  0
VERTEX
  5
11A
100
AcDbEntity
  8
LAYER_1
 62
     7
100
AcDbVertex
100
AcDb2dVertex
 10
86.538732
 20
102.848503
 30
0.0
  0
VERTEX
  5
11B
100
AcDbEntity
  8
LAYER_1
 62
     7
100
AcDbVertex
100
AcDb2dVertex
 10
86.043499
 20
101.000898
 30
0.0
  0
SEQEND
  5
11C
100
AcDbEntity
  8
LAYER_1
 62
     7
  0
POLYLINE
  5
113
100
AcDbEntity
  8
LAYER_1
 62
     7
100
AcDb2dPolyline
 66
     1
 10
0.0
 20
0.0
 30
0.0
  0
VERTEX
  5
114
100
AcDbEntity
  8
LAYER_1
 62
     7
100
AcDbVertex
100
AcDb2dVertex
 10
158.285257
 20
175.467326
 30
0.0
  0
VERTEX
  5
115
100
AcDbEntity
  8
LAYER_1
 62
     7
100
AcDbVertex
100
AcDb2dVertex
 10
157.790196
 20
177.315275
 30
0.0
  0
VERTEX
  5
116
100
AcDbEntity
  8
LAYER_1
 62
     7
100
AcDbVertex
100
AcDb2dVertex
 10
157.295136
 20
175.467326
 30
0.0
  0
SEQEND
  5
117
100
AcDbEntity
  8
LAYER_1
 62
     7
  0
POLYLINE
  5
10E
100
AcDbEntity
  8
LAYER_1
 62
     7
100
AcDb2dPolyline
 66
     1
 10
0.0
 20
0.0
 30
0.0
  0
VERTEX
  5
10F
100
AcDbEntity
  8
LAYER_1
 62
     7
100
AcDbVertex
100
AcDb2dVertex
 10
116.794594
 20
105.516385
 30
0.0
  0
VERTEX
  5
110
100
AcDbEntity
  8
LAYER_1
 62
     7
100
AcDbVertex
100
AcDb2dVertex
 10
116.299533
 20
107.364334
 30
0.0
  0
VERTEX
  5
111
100
AcDbEntity
  8
LAYER_1
 62
     7
100
AcDbVertex
100
AcDb2dVertex
 10
115.804473
 20
105.516385
 30
0.0
  0
SEQEND
  5
112
100
AcDbEntity
  8
LAYER_1
 62
     7
  0
POLYLINE
  5
109
100
AcDbEntity
  8
LAYER_1
 62
     7
100
AcDb2dPolyline
 66
     1
 10
0.0
 20
0.0
 30
0.0
  0
VERTEX
  5
10A
100
AcDbEntity
  8
LAYER_1
 62
     7
100
AcDbVertex
100
AcDb2dVertex
 10
157.402279
 20
109.298066
 30
0.0
  0
VERTEX
  5
10B
100
AcDbEntity
  8
LAYER_1
 62
     7
100
AcDbVertex
100
AcDb2dVertex
 10
157.897339
 20
107.450117
 30
0.0
  0
VERTEX
  5
10C
100
AcDbEntity
  8
LAYER_1
 62
     7
100
AcDbVertex
100
AcDb2dVertex
 10
158.392399
 20
109.298066
 30
0.0
  0
SEQEND
  5
10D
100
AcDbEntity
  8
LAYER_1
 62
     7
  0
POLYLINE
  5
104
100
AcDbEntity
  8
LAYER_1
 62
     7
100
AcDb2dPolyline
 66
     1
 10
0.0
 20
0.0
 30
0.0
  0
VERTEX
  5
105
100
AcDbEntity
  8
LAYER_1
 62
     7
100
AcDbVertex
100
AcDb2dVertex
 10
115.804473
 20
98.750906
 30
0.0
  0
VERTEX
  5
106
100
AcDbEntity
  8
LAYER_1
 62
     7
100
AcDbVertex
100
AcDb2dVertex
 10
116.299533
 20
96.902957
 30
0.0
  0
VERTEX
  5
107
100
AcDbEntity
  8
LAYER_1
 62
     7
100
AcDbVertex
100
AcDb2dVertex
 10
116.794594
 20
98.750906
 30
0.0
  0
SEQEND
  5
108
100
AcDbEntity
  8
LAYER_1
 62
     7
  0
POLYLINE
  5
FF
100
AcDbEntity
  8
LAYER_1
 62
     7
100
AcDb2dPolyline
 66
     1
 10
0.0
 20
0.0
 30
0.0
  0
VERTEX
  5
100
100
AcDbEntity
  8
LAYER_1
 62
     7
100
AcDbVertex
100
AcDb2dVertex
 10
43.121571
 20
139.741686
 30
0.0
  0
VERTEX
  5
101
100
AcDbEntity
  8
LAYER_1
 62
     7
100
AcDbVertex
100
AcDb2dVertex
 10
41.273622
 20
139.246625
 30
0.0
  0
VERTEX
  5
102
100
AcDbEntity
  8
LAYER_1
 62
     7
100
AcDbVertex
100
AcDb2dVertex
 10
43.121571
 20
138.751221
 30
0.0
  0
SEQEND
  5
103
100
AcDbEntity
  8
LAYER_1
 62
     7
  0
LINE
  5
FE
100
AcDbEntity
  8
LAYER_1
 62
     7
100
AcDbLine
 10
74.023044
 20
89.301698
 30
0.0
 11
79.071659
 21
89.301698
 31
0.0
  0
LINE
  5
FD
100
AcDbEntity
  8
LAYER_1
 62
     7
100
AcDbLine
 10
178.170692
 20
127.494716
 30
0.0
 11
180.421029
 21
127.494716
 31
0.0
  0
LINE
  5
FC
100
AcDbEntity
  8
LAYER_1
 62
     7
100
AcDbLine
 10
178.170692
 20
122.520342
 30
0.0
 11
180.421029
 21
122.520342
 31
0.0
  0
POLYLINE
  5
F7
100
AcDbEntity
  8
LAYER_1
 62
     7
100
AcDb2dPolyline
 66
     1
 10
0.0
 20
0.0
 30
0.0
  0
VERTEX
  5
F8
100
AcDbEntity
  8
LAYER_1
 62
     7
100
AcDbVertex
100
AcDb2dVertex
 10
178.170692
 20
95.926272
 30
0.0
  0
VERTEX
  5
F9
100
AcDbEntity
  8
LAYER_1
 62
     7
100
AcDbVertex
100
AcDb2dVertex
 10
178.170692
 20
132.744697
 30
0.0
  0
VERTEX
  5
FA
100
AcDbEntity
  8
LAYER_1
 62
     7
100
AcDbVertex
100
AcDb2dVertex
 10
180.421029
 20
132.744697
 30
0.0
  0
SEQEND
  5
FB
100
AcDbEntity
  8
LAYER_1
 62
     7
  0
SPLINE
  5
F6
100
AcDbEntity
  8
LAYER_1
 62
     7
100
AcDbSpline
210
0.0
220
0.0
230
1.0
 70
     8
 71
     3
 72
    17
 73
    13
 74
     0
 42
0.00000001
 43
0.00000001
 40
0.0
 40
0.0
 40
0.0
 40
0.0
 40
1.0
 40
1.0
 40
1.0
 40
2.0
 40
2.0
 40
2.0
 40
3.0
 40
3.0
 40
3.0
 40
4.0
 40
4.0
 40
4.0
 40
4.0
 10
178.17069227430554
 20
101.95691189236111
 30
0.0
 10
177.99499240451388
 20
101.95794542100694
 30
0.0
 10
177.85305447048609
 20
102.10022786458332
 30
0.0
 10
177.85202094184027
 20
102.27558322482638
 30
0.0
 10
177.93814832899304
 20
102.48711208767361
 30
0.0
 10
178.17827148437499
 20
102.58977593315971
 30
0.0
 10
178.39048936631943
 20
102.50640462239582
 30
0.0
 10
178.45319010416665
 20
102.44577094184027
 30
0.0
 10
178.48867458767359
 20
102.362744140625
 30
0.0
 10
178.48936360677081
 20
102.27558322482638
 30
0.0
 10
178.48833007812499
 20
102.10022786458332
 30
0.0
 10
178.34639214409719
 20
101.95794542100694
 30
0.0
 10
178.17069227430554
 20
101.95691189236111
 30
0.0
  0
SPLINE
  5
F5
100
AcDbEntity
  8
LAYER_1
 62
     7
100
AcDbSpline
210
0.0
220
0.0
230
1.0
 70
     8
 71
     3
 72
    17
 73
    13
 74
     0
 42
0.00000001
 43
0.00000001
 40
0.0
 40
0.0
 40
0.0
 40
0.0
 40
1.0
 40
1.0
 40
1.0
 40
2.0
 40
2.0
 40
2.0
 40
3.0
 40
3.0
 40
3.0
 40
4.0
 40
4.0
 40
4.0
 40
4.0
 10
178.17069227430554
 20
97.110351562499986
 30
0.0
 10
177.99499240451388
 20
97.111729600694431
 30
0.0
 10
177.85305447048609
 20
97.253667534722211
 30
0.0
 10
177.85202094184027
 20
97.429367404513883
 30
0.0
 10
177.93814832899304
 20
97.640551757812489
 30
0.0
 10
178.17827148437499
 20
97.743215603298609
 30
0.0
 10
178.39048936631943
 20
97.660188802083326
 30
0.0
 10
178.45319010416665
 20
97.599555121527771
 30
0.0
 10
178.48867458767359
 20
97.516528320312489
 30
0.0
 10
178.48936360677081
 20
97.429367404513883
 30
0.0
 10
178.48833007812499
 20
97.253667534722211
 30
0.0
 10
178.34639214409719
 20
97.111729600694431
 30
0.0
 10
178.17069227430554
 20
97.110351562499986
 30
0.0
  0
SPLINE
  5
F4
100
AcDbEntity
  8
LAYER_1
 62
     7
100
AcDbSpline
210
0.0
220
0.0
230
1.0
 70
     8
 71
     3
 72
    17
 73
    13
 74
     0
 42
0.00000001
 43
0.00000001
 40
0.0
 40
0.0
 40
0.0
 40
0.0
 40
1.0
 40
1.0
 40
1.0
 40
2.0
 40
2.0
 40
2.0
 40
3.0
 40
3.0
 40
3.0
 40
4.0
 40
4.0
 40
4.0
 40
4.0
 10
178.17069227430554
 20
95.601399739583329
 30
0.0
 10
177.99499240451388
 20
95.602777777777774
 30
0.0
 10
177.85305447048609
 20
95.74471571180554
 30
0.0
 10
177.85202094184027
 20
95.9200710720486
 30
0.0
 10
177.93814832899304
 20
96.13125542534722
 30
0.0
 10
178.17827148437499
 20
96.234263780381937
 30
0.0
 10
178.39048936631943
 20
96.151236979166654
 30
0.0
 10
178.45319010416665
 20
96.090258789062489
 30
0.0
 10
178.48867458767359
 20
96.00723198784722
 30
0.0
 10
178.48936360677081
 20
95.9200710720486
 30
0.0
 10
178.48833007812499
 20
95.744371202256929
 30
0.0
 10
178.3460476345486
 20
95.602433268229163
 30
0.0
 10
178.17069227430554
 20
95.601399739583329
 30
0.0
  0
MTEXT
  5
F3
100
AcDbEntity
  8
LAYER_1
 62
     7
100
AcDbMText
 10
181.121072
 20
123.597014
 30
0.0
 40
2.524645
 41
0.0
 71
     1
 72
     2
  1
\W0.50;\fMS Gothic|b0|i0|c128;防水層
  7
KANJISTD
210
0.0
220
0.0
230
1.0
 11
1.000001
 21
0.0
 31
0.0
 73
     1
 44
1.0
  0
MTEXT
  5
F2
100
AcDbEntity
  8
LAYER_1
 62
     7
100
AcDbMText
 10
180.596039
 20
134.191027
 30
0.0
 40
2.524645
 41
0.0
 71
     1
 72
     2
  1
\W0.50;\fMS Gothic|b0|i0|c128;押さえコンクリート
  7
KANJISTD
210
0.0
220
0.0
230
1.0
 11
1.000001
 21
0.0
 31
0.0
 73
     1
 44
1.0
  0
MTEXT
  5
F1
100
AcDbEntity
  8
LAYER_1
 62
     7
100
AcDbMText
 10
76.537619
 20
199.910013
 30
0.0
 40
2.524645
 41
0.0
 71
     1
 72
     2
  1
\W0.50;\fMS Gothic|b0|i0|c128;金属笠木
  7
KANJISTD
210
0.0
220
0.0
230
1.0
 11
1.000001
 21
0.0
 31
0.0
 73
     1
 44
1.0
  0
MTEXT
  5
F0
100
AcDbEntity
  8
LAYER_1
 62
     7
100
AcDbMText
 10
80.381657
 20
193.486977
 30
0.0
 40
2.524645
 41
0.0
 71
     1
 72
     2
  1
\W0.50;\fMS Gothic|b0|i0|c128;上部ホルダー取付部材
  7
KANJISTD
210
0.0
220
0.0
230
1.0
 11
1.000001
 21
0.0
 31
0.0
 73
     1
 44
1.0
  0
MTEXT
  5
EF
100
AcDbEntity
  8
LAYER_1
 62
     7
100
AcDbMText
 10
83.681197
 20
186.737173
 30
0.0
 40
2.524645
 41
0.0
 71
     1
 72
     2
  1
\W0.50;\fMS Gothic|b0|i0|c128;上部ホルダー
  7
KANJISTD
210
0.0
220
0.0
230
1.0
 11
1.000001
 21
0.0
 31
0.0
 73
     1
 44
1.0
  0
MTEXT
  5
EE
100
AcDbEntity
  8
LAYER_1
 62
     7
100
AcDbMText
 10
90.160309
 20
166.350914
 30
0.0
 40
2.524645
 41
0.0
 71
     1
 72
     2
  1
\W0.50;\fMS Gothic|b0|i0|c128;10程度
  7
KANJISTD
210
0.0
220
0.0
230
1.0
 11
0.0
 21
1.0
 31
0.0
 73
     1
 44
1.0
  0
LINE
  5
ED
100
AcDbEntity
  8
LAYER_1
 62
     7
100
AcDbLine
 10
48.422023
 20
174.588137
 30
0.0
 11
48.422023
 21
180.847531
 31
0.0
  0
LINE
  5
EC
100
AcDbEntity
  8
LAYER_1
 62
     7
100
AcDbLine
 10
44.370074
 20
180.886461
 30
0.0
 11
52.609364
 21
180.886461
 31
0.0
  0
SPLINE
  5
EB
100
AcDbEntity
  8
LAYER_1
 62
     7
100
AcDbSpline
210
0.0
220
0.0
230
1.0
 70
     8
 71
     3
 72
    23
 73
    19
 74
     0
 42
0.00000001
 43
0.00000001
 40
0.0
 40
0.0
 40
0.0
 40
0.0
 40
1.0
 40
1.0
 40
1.0
 40
2.0
 40
2.0
 40
2.0
 40
3.0
 40
3.0
 40
3.0
 40
4.0
 40
4.0
 40
4.0
 40
5.0
 40
5.0
 40
5.0
 40
6.0
 40
6.0
 40
6.0
 40
6.0
 10
191.14423285590277
 20
95.037093098958323
 30
0.0
 10
191.14423285590277
 20
95.037093098958323
 30
0.0
 10
64.175927734374994
 20
95.037093098958323
 30
0.0
 10
64.175927734374994
 20
95.037093098958323
 30
0.0
 10
64.175927734374994
 20
95.037093098958323
 30
0.0
 10
64.17782253689235
 20
176.58233100043401
 30
0.0
 10
64.17782253689235
 20
176.58233100043401
 30
0.0
 10
64.137170410156244
 20
177.67907714843747
 30
0.0
 10
63.302940538194441
 20
178.58203667534721
 30
0.0
 10
62.213084581163187
 20
178.70950520833333
 30
0.0
 10
62.213084581163187
 20
178.70950520833333
 30
0.0
 10
41.184910753038189
 20
178.71932373046874
 30
0.0
 10
41.184910753038189
 20
178.71932373046874
 30
0.0
 10
41.184910753038189
 20
178.71932373046874
 30
0.0
 10
38.647942437065971
 20
176.21680636935761
 30
0.0
 10
38.647942437065971
 20
176.21680636935761
 30
0.0
 10
38.647942437065971
 20
176.21680636935761
 30
0.0
 10
38.654488118489581
 20
71.545331488715277
 30
0.0
 10
38.654488118489581
 20
71.545331488715277
 30
0.0
  0
LINE
  5
EA
100
AcDbEntity
  8
LAYER_1
 62
     7
100
AcDbLine
 10
43.267988
 20
178.525193
 30
0.0
 11
43.760809
 21
179.018186
 31
0.0
  0
LINE
  5
E9
100
AcDbEntity
  8
LAYER_1
 62
     7
100
AcDbLine
 10
42.671469
 20
178.700548
 30
0.0
 11
44.489963
 21
180.518869
 31
0.0
  0
LINE
  5
E8
100
AcDbEntity
  8
LAYER_1
 62
     7
100
AcDbLine
 10
41.929396
 20
178.730004
 30
0.0
 11
43.71051
 21
180.510946
 31
0.0
  0
LINE
  5
E7
100
AcDbEntity
  8
LAYER_1
 62
     7
100
AcDbLine
 10
41.262425
 20
178.83439
 30
0.0
 11
42.949661
 21
180.521798
 31
0.0
  0
SPLINE
  5
E6
100
AcDbEntity
  8
LAYER_1
 62
     7
100
AcDbSpline
210
0.0
220
0.0
230
1.0
 70
     8
 71
     3
 72
    11
 73
     7
 74
     0
 42
0.00000001
 43
0.00000001
 40
0.0
 40
0.0
 40
0.0
 40
0.0
 40
1.0
 40
1.0
 40
1.0
 40
2.0
 40
2.0
 40
2.0
 40
2.0
 10
40.846430121527774
 20
178.47988959418402
 30
0.0
 10
41.2782728407118
 20
179.83088378906248
 30
0.0
 10
42.58706461588541
 20
180.70352647569442
 30
0.0
 10
44.000070529513884
 20
180.58277587890623
 30
0.0
 10
44.286874728732634
 20
180.56899549696178
 30
0.0
 10
44.572128634982633
 20
180.53230523003469
 30
0.0
 10
44.853076171874996
 20
180.47304958767359
 30
0.0
  0
POLYLINE
  5
D3
100
AcDbEntity
  8
LAYER_1
 62
     7
100
AcDb2dPolyline
 66
     1
 10
0.0
 20
0.0
 30
0.0
  0
VERTEX
  5
D4
100
AcDbEntity
  8
LAYER_1
 62
     7
100
AcDbVertex
100
AcDb2dVertex
 10
79.470429
 20
172.962914
 30
0.0
  0
VERTEX
  5
D5
100
AcDbEntity
  8
LAYER_1
 62
     7
100
AcDbVertex
100
AcDb2dVertex
 10
79.470429
 20
181.867107
 30
0.0
  0
VERTEX
  5
D6
100
AcDbEntity
  8
LAYER_1
 62
     7
100
AcDbVertex
100
AcDb2dVertex
 10
40.623188
 20
183.915389
 30
0.0
  0
VERTEX
  5
D7
100
AcDbEntity
  8
LAYER_1
 62
     7
100
AcDbVertex
100
AcDb2dVertex
 10
40.293837
 20
185.745596
 30
0.0
  0
VERTEX
  5
D8
100
AcDbEntity
  8
LAYER_1
 62
     7
100
AcDbVertex
100
AcDb2dVertex
 10
36.55608
 20
186.160213
 30
0.0
  0
VERTEX
  5
D9
100
AcDbEntity
  8
LAYER_1
 62
     7
100
AcDbVertex
100
AcDb2dVertex
 10
36.554875
 20
172.958091
 30
0.0
  0
VERTEX
  5
DA
100
AcDbEntity
  8
LAYER_1
 62
     7
100
AcDbVertex
100
AcDb2dVertex
 10
37.252851
 20
172.958091
 30
0.0
  0
VERTEX
  5
DB
100
AcDbEntity
  8
LAYER_1
 62
     7
100
AcDbVertex
100
AcDb2dVertex
 10
37.252851
 20
172.609619
 30
0.0
  0
VERTEX
  5
DC
100
AcDbEntity
  8
LAYER_1
 62
     7
100
AcDbVertex
100
AcDb2dVertex
 10
36.207609
 20
172.609619
 30
0.0
  0
VERTEX
  5
DD
100
AcDbEntity
  8
LAYER_1
 62
     7
100
AcDbVertex
100
AcDb2dVertex
 10
36.207609
 20
186.544169
 30
0.0
  0
VERTEX
  5
DE
100
AcDbEntity
  8
LAYER_1
 62
     7
100
AcDbVertex
100
AcDb2dVertex
 10
40.570306
 20
186.062028
 30
0.0
  0
VERTEX
  5
DF
100
AcDbEntity
  8
LAYER_1
 62
     7
100
AcDbVertex
100
AcDb2dVertex
 10
40.908097
 20
184.248357
 30
0.0
  0
VERTEX
  5
E0
100
AcDbEntity
  8
LAYER_1
 62
     7
100
AcDbVertex
100
AcDb2dVertex
 10
79.818728
 20
182.189741
 30
0.0
  0
VERTEX
  5
E1
100
AcDbEntity
  8
LAYER_1
 62
     7
100
AcDbVertex
100
AcDb2dVertex
 10
79.818728
 20
172.609619
 30
0.0
  0
VERTEX
  5
E2
100
AcDbEntity
  8
LAYER_1
 62
     7
100
AcDbVertex
100
AcDb2dVertex
 10
78.743169
 20
172.609619
 30
0.0
  0
VERTEX
  5
E3
100
AcDbEntity
  8
LAYER_1
 62
     7
100
AcDbVertex
100
AcDb2dVertex
 10
78.743169
 20
172.958091
 30
0.0
  0
VERTEX
  5
E4
100
AcDbEntity
  8
LAYER_1
 62
     7
100
AcDbVertex
100
AcDb2dVertex
 10
79.470429
 20
172.958091
 30
0.0
  0
SEQEND
  5
E5
100
AcDbEntity
  8
LAYER_1
 62
     7
  0
SPLINE
  5
D2
100
AcDbEntity
  8
LAYER_1
 62
     7
100
AcDbSpline
210
0.0
220
0.0
230
1.0
 70
     8
 71
     3
 72
    50
 73
    46
 74
     0
 42
0.00000001
 43
0.00000001
 40
0.0
 40
0.0
 40
0.0
 40
0.0
 40
1.0
 40
1.0
 40
1.0
 40
2.0
 40
2.0
 40
2.0
 40
3.0
 40
3.0
 40
3.0
 40
4.0
 40
4.0
 40
4.0
 40
5.0
 40
5.0
 40
5.0
 40
6.0
 40
6.0
 40
6.0
 40
7.0
 40
7.0
 40
7.0
 40
8.0
 40
8.0
 40
8.0
 40
9.0
 40
9.0
 40
9.0
 40
10.0
 40
10.0
 40
10.0
 40
11.0
 40
11.0
 40
11.0
 40
12.0
 40
12.0
 40
12.0
 40
13.0
 40
13.0
 40
13.0
 40
14.0
 40
14.0
 40
14.0
 40
15.0
 40
15.0
 40
15.0
 40
15.0
 10
191.14423285590277
 20
96.924660915798597
 30
0.0
 10
191.14423285590277
 20
96.924660915798597
 30
0.0
 10
70.436872016059027
 20
96.924660915798597
 30
0.0
 10
70.436872016059027
 20
96.924660915798597
 30
0.0
 10
70.436872016059027
 20
96.924660915798597
 30
0.0
 10
65.955147298177081
 20
101.51180555555554
 30
0.0
 10
65.955147298177081
 20
101.51180555555554
 30
0.0
 10
65.955147298177081
 20
101.51180555555554
 30
0.0
 10
65.957386610243049
 20
170.79043646918402
 30
0.0
 10
65.957386610243049
 20
170.79043646918402
 30
0.0
 10
65.957386610243049
 20
170.79043646918402
 30
0.0
 10
65.961692979600684
 20
176.60437961154511
 30
0.0
 10
65.961692979600684
 20
176.60437961154511
 30
0.0
 10
65.875048828124989
 20
178.76376546223958
 30
0.0
 10
64.108920627170136
 20
180.47494439019096
 30
0.0
 10
61.947984483506936
 20
180.49372016059027
 30
0.0
 10
61.947984483506936
 20
180.49372016059027
 30
0.0
 10
44.910092502170137
 20
180.47563340928818
 30
0.0
 10
44.910092502170137
 20
180.47563340928818
 30
0.0
 10
44.766087510850689
 20
180.46392008463539
 30
0.0
 10
44.627422417534717
 20
180.41482747395833
 30
0.0
 10
44.508049858940971
 20
180.33335096571179
 30
0.0
 10
44.234681532118053
 20
180.07514105902777
 30
0.0
 10
44.021430121527771
 20
179.75991482204859
 30
0.0
 10
43.883454047309023
 20
179.41006537543402
 30
0.0
 10
43.811623806423604
 20
179.21455620659719
 30
0.0
 10
43.755468749999999
 20
179.01370713975692
 30
0.0
 10
43.715677897135414
 20
178.80906846788193
 30
0.0
 10
43.715677897135414
 20
178.80906846788193
 30
0.0
 10
61.947984483506936
 20
178.77513427734374
 30
0.0
 10
61.947984483506936
 20
178.77513427734374
 30
0.0
 10
63.227837456597214
 20
178.76514350043402
 30
0.0
 10
64.26257188585069
 20
177.72920328776041
 30
0.0
 10
64.271184624565961
 20
176.44935031467011
 30
0.0
 10
64.271184624565961
 20
176.44935031467011
 30
0.0
 10
64.277041286892356
 20
171.32701009114581
 30
0.0
 10
64.277041286892356
 20
171.32701009114581
 30
0.0
 10
64.277041286892356
 20
171.32701009114581
 30
0.0
 10
64.408816189236106
 20
100.74699435763888
 30
0.0
 10
64.408816189236106
 20
100.74699435763888
 30
0.0
 10
64.408816189236106
 20
100.74699435763888
 30
0.0
 10
69.823128255208331
 20
95.181442599826383
 30
0.0
 10
69.823128255208331
 20
95.181442599826383
 30
0.0
 10
69.823128255208331
 20
95.181442599826383
 30
0.0
 10
191.14423285590277
 20
95.256545681423603
 30
0.0
 10
191.14423285590277
 20
95.256545681423603
 30
0.0
  0
MTEXT
  5
D1
100
AcDbEntity
  8
LAYER_1
 62
     7
100
AcDbMText
 10
154.521755
 20
129.010213
 30
0.0
 40
2.524645
 41
0.0
 71
     1
 72
     2
  1
\W0.50;\fMS Gothic|b0|i0|c128;乾式保護工法  600以下
  7
KANJISTD
210
0.0
220
0.0
230
1.0
 11
0.0
 21
1.0
 31
0.0
 73
     1
 44
1.0
  0
MTEXT
  5
D0
100
AcDbEntity
  8
LAYER_1
 62
     7
100
AcDbMText
 10
30.619836
 20
142.146097
 30
0.0
 40
2.524645
 41
0.0
 71
     1
 72
     2
  1
\W0.50;\fMS Gothic|b0|i0|c128;(20)
  7
STD
210
0.0
220
0.0
230
1.0
 11
1.000001
 21
0.0
 31
0.0
 73
     1
 44
1.0
  0
MTEXT
  5
CF
100
AcDbEntity
  8
LAYER_1
 62
     7
100
AcDbMText
 10
47.755397
 20
142.108545
 30
0.0
 40
2.524645
 41
0.0
 71
     1
 72
     2
  1
\W0.50;\fMS Gothic|b0|i0|c128;(180)
  7
STD
210
0.0
220
0.0
230
1.0
 11
1.000001
 21
0.0
 31
0.0
 73
     1
 44
1.0
  0
LINE
  5
CE
100
AcDbEntity
  8
LAYER_1
 62
     7
100
AcDbLine
 10
64.05466
 20
139.208729
 30
0.0
 11
30.924727
 21
139.208729
 31
0.0
  0
MTEXT
  5
CD
100
AcDbEntity
  8
LAYER_1
 62
     7
100
AcDbMText
 10
121.251169
 20
120.773758
 30
0.0
 40
2.524645
 41
0.0
 71
     1
 72
     2
  1
\W0.50;\fMS Gothic|b0|i0|c128;伸縮目地
  7
KANJISTD
210
0.0
220
0.0
230
1.0
 11
1.000001
 21
0.0
 31
0.0
 73
     1
 44
1.0
  0
MTEXT
  5
CC
100
AcDbEntity
  8
LAYER_1
 62
     7
100
AcDbMText
 10
117.182856
 20
114.914684
 30
0.0
 40
2.524645
 41
0.0
 71
     1
 72
     2
  1
\W0.50;\fMS Gothic|b0|i0|c128;溶接金網
  7
KANJISTD
210
0.0
220
0.0
230
1.0
 11
1.000001
 21
0.0
 31
0.0
 73
     1
 44
1.0
  0
POLYLINE
  5
C7
100
AcDbEntity
  8
LAYER_1
 62
     7
100
AcDb2dPolyline
 66
     1
 10
0.0
 20
0.0
 30
0.0
  0
VERTEX
  5
C8
100
AcDbEntity
  8
LAYER_1
 62
     7
100
AcDbVertex
100
AcDb2dVertex
 10
74.9074
 20
102.894322
 30
0.0
  0
VERTEX
  5
C9
100
AcDbEntity
  8
LAYER_1
 62
     7
100
AcDbVertex
100
AcDb2dVertex
 10
86.467763
 20
102.894322
 30
0.0
  0
VERTEX
  5
CA
100
AcDbEntity
  8
LAYER_1
 62
     7
100
AcDbVertex
100
AcDb2dVertex
 10
86.467763
 20
117.048842
 30
0.0
  0
SEQEND
  5
CB
100
AcDbEntity
  8
LAYER_1
 62
     7
  0
MTEXT
  5
C6
100
AcDbEntity
  8
LAYER_1
 62
     7
100
AcDbMText
 10
89.047622
 20
126.950814
 30
0.0
 40
2.524645
 41
0.0
 71
     1
 72
     2
  1
\W0.50;\fMS Gothic|b0|i0|c128;アンカー
  7
KANJISTD
210
0.0
220
0.0
230
1.0
 11
1.000001
 21
0.0
 31
0.0
 73
     1
 44
1.0
  0
MTEXT
  5
C5
100
AcDbEntity
  8
LAYER_1
 62
     7
100
AcDbMText
 10
83.534874
 20
109.606057
 30
0.0
 40
2.524645
 41
0.0
 71
     1
 72
     2
  1
\W0.50;\fMS Gothic|b0|i0|c128;50以下
  7
KANJISTD
210
0.0
220
0.0
230
1.0
 11
0.0
 21
1.0
 31
0.0
 73
     1
 44
1.0
  0
MTEXT
  5
C4
100
AcDbEntity
  8
LAYER_1
 62
     7
100
AcDbMText
 10
67.688719
 20
92.23252
 30
0.0
 40
2.524645
 41
0.0
 71
     1
 72
     2
  1
\W0.50;\fMS Gothic|b0|i0|c128;30以上
  7
KANJISTD
210
0.0
220
0.0
230
1.0
 11
1.000001
 21
0.0
 31
0.0
 73
     1
 44
1.0
  0
MTEXT
  5
C3
100
AcDbEntity
  8
LAYER_1
 62
     7
100
AcDbMText
 10
98.740398
 20
81.512537
 30
0.0
 40
2.531312
 41
0.0
 71
     1
 72
     2
  1
\W0.50;\fMS Gothic|b0|i0|c128;600程度
  7
KANJISTD
210
0.0
220
0.0
230
1.0
 11
1.000001
 21
0.0
 31
0.0
 73
     1
 44
1.0
  0
MTEXT
  5
C2
100
AcDbEntity
  8
LAYER_1
 62
     7
100
AcDbMText
 10
138.613072
 20
116.339575
 30
0.0
 40
2.524645
 41
0.0
 71
     1
 72
     2
  1
\W0.50;\fMS Gothic|b0|i0|c128;(25)
  7
STD
210
0.0
220
0.0
230
1.0
 11
1.000001
 21
0.0
 31
0.0
 73
     1
 44
1.0
  0
MTEXT
  5
C1
100
AcDbEntity
  8
LAYER_1
 62
     7
100
AcDbMText
 10
113.163729
 20
98.665468
 30
0.0
 40
2.524645
 41
0.0
 71
     1
 72
     2
  1
\W0.50;\fMS Gothic|b0|i0|c128;(80)
  7
STD
210
0.0
220
0.0
230
1.0
 11
0.0
 21
1.0
 31
0.0
 73
     1
 44
1.0
  0
LINE
  5
C0
100
AcDbEntity
  8
LAYER_1
 62
     7
100
AcDbLine
 10
116.299533
 20
96.902957
 30
0.0
 11
116.299533
 21
107.364334
 31
0.0
  0
POLYLINE
  5
BA
100
AcDbEntity
  8
LAYER_1
 62
     7
100
AcDb2dPolyline
 66
     1
 10
0.0
 20
0.0
 30
0.0
  0
VERTEX
  5
BB
100
AcDbEntity
  8
LAYER_1
 62
     7
100
AcDbVertex
100
AcDb2dVertex
 10
141.698844
 20
107.824943
 30
0.0
  0
VERTEX
  5
BC
100
AcDbEntity
  8
LAYER_1
 62
     7
100
AcDbVertex
100
AcDb2dVertex
 10
141.698844
 20
113.355699
 30
0.0
  0
VERTEX
  5
BD
100
AcDbEntity
  8
LAYER_1
 62
     7
100
AcDbVertex
100
AcDb2dVertex
 10
138.380528
 20
113.355699
 30
0.0
  0
VERTEX
  5
BE
100
AcDbEntity
  8
LAYER_1
 62
     7
100
AcDbVertex
100
AcDb2dVertex
 10
138.380528
 20
107.824943
 30
0.0
  0
SEQEND
  5
BF
100
AcDbEntity
  8
LAYER_1
 62
     7
  0
POLYLINE
  5
B4
100
AcDbEntity
  8
LAYER_1
 62
     7
100
AcDb2dPolyline
 66
     1
 10
0.0
 20
0.0
 30
0.0
  0
VERTEX
  5
B5
100
AcDbEntity
  8
LAYER_1
 62
     7
100
AcDbVertex
100
AcDb2dVertex
 10
141.644067
 20
97.446593
 30
0.0
  0
VERTEX
  5
B6
100
AcDbEntity
  8
LAYER_1
 62
     7
100
AcDbVertex
100
AcDb2dVertex
 10
141.644067
 20
107.177954
 30
0.0
  0
VERTEX
  5
B7
100
AcDbEntity
  8
LAYER_1
 62
     7
100
AcDbVertex
100
AcDb2dVertex
 10
138.455632
 20
107.177954
 30
0.0
  0
VERTEX
  5
B8
100
AcDbEntity
  8
LAYER_1
 62
     7
100
AcDbVertex
100
AcDb2dVertex
 10
138.455632
 20
97.446593
 30
0.0
  0
SEQEND
  5
B9
100
AcDbEntity
  8
LAYER_1
 62
     7
  0
POLYLINE
  5
AF
100
AcDbEntity
  8
LAYER_1
 62
     7
100
AcDb2dPolyline
 66
     1
 10
0.0
 20
0.0
 30
0.0
  0
VERTEX
  5
B0
100
AcDbEntity
  8
LAYER_1
 62
     7
100
AcDbVertex
100
AcDb2dVertex
 10
75.847222
 20
175.867646
 30
0.0
  0
VERTEX
  5
B1
100
AcDbEntity
  8
LAYER_1
 62
     7
100
AcDbVertex
100
AcDb2dVertex
 10
93.09561
 20
175.871263
 30
0.0
  0
VERTEX
  5
B2
100
AcDbEntity
  8
LAYER_1
 62
     7
100
AcDbVertex
100
AcDb2dVertex
 10
93.09561
 20
182.697548
 30
0.0
  0
SEQEND
  5
B3
100
AcDbEntity
  8
LAYER_1
 62
     7
  0
POLYLINE
  5
AA
100
AcDbEntity
  8
LAYER_1
 62
     7
100
AcDb2dPolyline
 66
     1
 10
0.0
 20
0.0
 30
0.0
  0
VERTEX
  5
AB
100
AcDbEntity
  8
LAYER_1
 62
     7
100
AcDbVertex
100
AcDb2dVertex
 10
85.199967
 20
177.39434
 30
0.0
  0
VERTEX
  5
AC
100
AcDbEntity
  8
LAYER_1
 62
     7
100
AcDbVertex
100
AcDb2dVertex
 10
157.897339
 20
177.397096
 30
0.0
  0
VERTEX
  5
AD
100
AcDbEntity
  8
LAYER_1
 62
     7
100
AcDbVertex
100
AcDb2dVertex
 10
157.897339
 20
107.450117
 30
0.0
  0
SEQEND
  5
AE
100
AcDbEntity
  8
LAYER_1
 62
     7
  0
LINE
  5
A9
100
AcDbEntity
  8
LAYER_1
 62
     7
100
AcDbLine
 10
75.430538
 20
177.393651
 30
0.0
 11
85.104366
 21
177.394168
 31
0.0
  0
MTEXT
  5
A8
100
AcDbEntity
  8
LAYER_1
 62
     7
100
AcDbMText
 10
90.183987
 20
132.747532
 30
0.0
 40
2.524645
 41
0.0
 71
     1
 72
     2
  1
\W0.50;\fMS Gothic|b0|i0|c128;下部ホルダー
  7
KANJISTD
210
0.0
220
0.0
230
1.0
 11
1.000001
 21
0.0
 31
0.0
 73
     1
 44
1.0
  0
INSERT
  5
9A
100
AcDbEntity
  8
LAYER_1
 62
     7
100
AcDbBlockReference
  2
AI9-BLK2
 10
130.984856
 20
102.324676
 30
0.0
  0
LINE
  5
98
100
AcDbEntity
  8
LAYER_1
 62
     7
100
AcDbLine
 10
58.832068
 20
180.868891
 30
0.0
 11
58.832068
 21
174.581936
 31
0.0
  0
LINE
  5
97
100
AcDbEntity
  8
LAYER_1
 62
     7
100
AcDbLine
 10
74.17015
 20
108.751674
 30
0.0
 11
74.17015
 21
102.464719
 31
0.0
  0
POLYLINE
  5
91
100
AcDbEntity
  8
LAYER_1
 62
     7
100
AcDb2dPolyline
 66
     1
 10
0.0
 20
0.0
 30
0.0
 70
     1
  0
VERTEX
  5
92
100
AcDbEntity
  8
LAYER_1
 62
     7
100
AcDbVertex
100
AcDb2dVertex
 10
75.098258
 20
109.103073
 30
0.0
  0
VERTEX
  5
93
100
AcDbEntity
  8
LAYER_1
 62
     7
100
AcDbVertex
100
AcDb2dVertex
 10
75.098258
 20
177.353516
 30
0.0
  0
VERTEX
  5
94
100
AcDbEntity
  8
LAYER_1
 62
     7
100
AcDbVertex
100
AcDb2dVertex
 10
73.187953
 20
177.353516
 30
0.0
  0
VERTEX
  5
95
100
AcDbEntity
  8
LAYER_1
 62
     7
100
AcDbVertex
100
AcDb2dVertex
 10
73.187953
 20
109.103073
 30
0.0
  0
SEQEND
  5
96
100
AcDbEntity
  8
LAYER_1
 62
     7
  0
POLYLINE
  5
87
100
AcDbEntity
  8
LAYER_1
 62
     7
100
AcDb2dPolyline
 66
     1
 10
0.0
 20
0.0
 30
0.0
 70
     1
  0
VERTEX
  5
88
100
AcDbEntity
  8
LAYER_1
 62
     7
100
AcDbVertex
100
AcDb2dVertex
 10
76.029985
 20
111.232487
 30
0.0
  0
VERTEX
  5
89
100
AcDbEntity
  8
LAYER_1
 62
     7
100
AcDbVertex
100
AcDb2dVertex
 10
76.028262
 20
108.099517
 30
0.0
  0
VERTEX
  5
8A
100
AcDbEntity
  8
LAYER_1
 62
     7
100
AcDbVertex
100
AcDb2dVertex
 10
72.393342
 20
108.099517
 30
0.0
  0
VERTEX
  5
8B
100
AcDbEntity
  8
LAYER_1
 62
     7
100
AcDbVertex
100
AcDb2dVertex
 10
72.393514
 20
111.232487
 30
0.0
  0
VERTEX
  5
8C
100
AcDbEntity
  8
LAYER_1
 62
     7
100
AcDbVertex
100
AcDb2dVertex
 10
72.810198
 20
111.232487
 30
0.0
  0
VERTEX
  5
8D
100
AcDbEntity
  8
LAYER_1
 62
     7
100
AcDbVertex
100
AcDb2dVertex
 10
72.810198
 20
108.516374
 30
0.0
  0
VERTEX
  5
8E
100
AcDbEntity
  8
LAYER_1
 62
     7
100
AcDbVertex
100
AcDb2dVertex
 10
75.612783
 20
108.516374
 30
0.0
  0
VERTEX
  5
8F
100
AcDbEntity
  8
LAYER_1
 62
     7
100
AcDbVertex
100
AcDb2dVertex
 10
75.612783
 20
111.232487
 30
0.0
  0
SEQEND
  5
90
100
AcDbEntity
  8
LAYER_1
 62
     7
  0
LINE
  5
86
100
AcDbEntity
  8
LAYER_1
 62
     7
100
AcDbLine
 10
178.914833
 20
107.177265
 30
0.0
 11
188.623456
 21
97.468641
 31
0.0
  0
LINE
  5
85
100
AcDbEntity
  8
LAYER_1
 62
     7
100
AcDbLine
 10
177.587438
 20
107.229631
 30
0.0
 11
187.344637
 21
97.472087
 31
0.0
  0
LINE
  5
84
100
AcDbEntity
  8
LAYER_1
 62
     7
100
AcDbLine
 10
176.443321
 20
107.098372
 30
0.0
 11
186.054449
 21
97.487245
 31
0.0
  0
LINE
  5
83
100
AcDbEntity
  8
LAYER_1
 62
     7
100
AcDbLine
 10
153.405968
 20
107.177265
 30
0.0
 11
163.17178
 21
97.411453
 31
0.0
  0
LINE
  5
82
100
AcDbEntity
  8
LAYER_1
 62
     7
100
AcDbLine
 10
152.078573
 20
107.229631
 30
0.0
 11
161.830949
 21
97.47691
 31
0.0
  0
LINE
  5
81
100
AcDbEntity
  8
LAYER_1
 62
     7
100
AcDbLine
 10
150.934456
 20
107.098372
 30
0.0
 11
160.616897
 21
97.415243
 31
0.0
  0
LINE
  5
80
100
AcDbEntity
  8
LAYER_1
 62
     7
100
AcDbLine
 10
127.897103
 20
107.177265
 30
0.0
 11
137.636043
 21
97.438325
 31
0.0
  0
LINE
  5
7F
100
AcDbEntity
  8
LAYER_1
 62
     7
100
AcDbLine
 10
126.569363
 20
107.229631
 30
0.0
 11
136.357224
 21
97.441425
 31
0.0
  0
LINE
  5
7E
100
AcDbEntity
  8
LAYER_1
 62
     7
100
AcDbLine
 10
125.425247
 20
107.098372
 30
0.0
 11
135.067036
 21
97.456584
 31
0.0
  0
LINE
  5
7D
100
AcDbEntity
  8
LAYER_1
 62
     7
100
AcDbLine
 10
102.388238
 20
107.177265
 30
0.0
 11
112.156462
 21
97.409041
 31
0.0
  0
LINE
  5
7C
100
AcDbEntity
  8
LAYER_1
 62
     7
100
AcDbLine
 10
101.060498
 20
107.229631
 30
0.0
 11
110.877642
 21
97.412486
 31
0.0
  0
LINE
  5
7B
100
AcDbEntity
  8
LAYER_1
 62
     7
100
AcDbLine
 10
99.916554
 20
107.098372
 30
0.0
 11
109.587454
 21
97.4273
 31
0.0
  0
LINE
  5
7A
100
AcDbEntity
  8
LAYER_1
 62
     7
100
AcDbLine
 10
76.879373
 20
107.177265
 30
0.0
 11
86.634677
 21
97.421788
 31
0.0
  0
LINE
  5
79
100
AcDbEntity
  8
LAYER_1
 62
     7
100
AcDbLine
 10
75.551633
 20
107.229631
 30
0.0
 11
85.355858
 21
97.425233
 31
0.0
  0
LINE
  5
78
100
AcDbEntity
  8
LAYER_1
 62
     7
100
AcDbLine
 10
141.053923
 20
107.279584
 30
0.0
 11
138.527634
 21
104.753296
 31
0.0
  0
LINE
  5
77
100
AcDbEntity
  8
LAYER_1
 62
     7
100
AcDbLine
 10
139.050255
 20
107.248234
 30
0.0
 11
141.544849
 21
104.753296
 31
0.0
  0
LINE
  5
76
100
AcDbEntity
  8
LAYER_1
 62
     7
100
AcDbLine
 10
141.592735
 20
105.267649
 30
0.0
 11
138.527634
 21
102.202547
 31
0.0
  0
LINE
  5
75
100
AcDbEntity
  8
LAYER_1
 62
     7
100
AcDbLine
 10
138.479747
 20
105.267649
 30
0.0
 11
141.544849
 21
102.202547
 31
0.0
  0
LINE
  5
74
100
AcDbEntity
  8
LAYER_1
 62
     7
100
AcDbLine
 10
141.592735
 20
102.7169
 30
0.0
 11
138.527634
 21
99.651454
 31
0.0
  0
LINE
  5
73
100
AcDbEntity
  8
LAYER_1
 62
     7
100
AcDbLine
 10
138.479747
 20
102.7169
 30
0.0
 11
141.544849
 21
99.651454
 31
0.0
  0
LINE
  5
72
100
AcDbEntity
  8
LAYER_1
 62
     7
100
AcDbLine
 10
141.592735
 20
100.166151
 30
0.0
 11
138.86043
 21
97.433502
 31
0.0
  0
LINE
  5
71
100
AcDbEntity
  8
LAYER_1
 62
     7
100
AcDbLine
 10
138.479747
 20
100.166151
 30
0.0
 11
141.207574
 21
97.438325
 31
0.0
  0
LINE
  5
70
100
AcDbEntity
  8
LAYER_1
 62
     7
100
AcDbLine
 10
74.407517
 20
107.098372
 30
0.0
 11
84.06877
 21
97.436602
 31
0.0
  0
LINE
  5
6F
100
AcDbEntity
  8
LAYER_1
 62
     7
100
AcDbLine
 10
64.169899
 20
160.533181
 30
0.0
 11
46.161868
 21
178.54104
 31
0.0
  0
LINE
  5
6E
100
AcDbEntity
  8
LAYER_1
 62
     7
100
AcDbLine
 10
64.132692
 20
161.845591
 30
0.0
 11
47.361967
 21
178.616315
 31
0.0
  0
LINE
  5
6D
100
AcDbEntity
  8
LAYER_1
 62
     7
100
AcDbLine
 10
64.123735
 20
163.130267
 30
0.0
 11
48.637169
 21
178.616488
 31
0.0
  0
LINE
  5
6C
100
AcDbEntity
  8
LAYER_1
 62
     7
100
AcDbLine
 10
64.169899
 20
135.024316
 30
0.0
 11
38.716672
 21
160.477371
 31
0.0
  0
LINE
  5
6B
100
AcDbEntity
  8
LAYER_1
 62
     7
100
AcDbLine
 10
64.132692
 20
136.336553
 30
0.0
 11
38.657244
 21
161.812173
 31
0.0
  0
LINE
  5
6A
100
AcDbEntity
  8
LAYER_1
 62
     7
100
AcDbLine
 10
64.123735
 20
137.621229
 30
0.0
 11
38.694968
 21
163.049996
 31
0.0
  0
LINE
  5
69
100
AcDbEntity
  8
LAYER_1
 62
     7
100
AcDbLine
 10
64.169899
 20
109.515107
 30
0.0
 11
38.716672
 21
134.968506
 31
0.0
  0
LINE
  5
68
100
AcDbEntity
  8
LAYER_1
 62
     7
100
AcDbLine
 10
64.132692
 20
110.827688
 30
0.0
 11
38.716672
 21
136.24388
 31
0.0
  0
LINE
  5
67
100
AcDbEntity
  8
LAYER_1
 62
     7
100
AcDbLine
 10
64.123735
 20
112.112364
 30
0.0
 11
38.716672
 21
137.519255
 31
0.0
  0
LINE
  5
66
100
AcDbEntity
  8
LAYER_1
 62
     7
100
AcDbLine
 10
51.062689
 20
71.604587
 30
0.0
 11
38.716672
 21
83.950431
 31
0.0
  0
LINE
  5
65
100
AcDbEntity
  8
LAYER_1
 62
     7
100
AcDbLine
 10
52.375442
 20
71.56738
 30
0.0
 11
38.716672
 21
85.225806
 31
0.0
  0
LINE
  5
64
100
AcDbEntity
  8
LAYER_1
 62
     7
100
AcDbLine
 10
53.631868
 20
71.586328
 30
0.0
 11
38.716672
 21
86.501525
 31
0.0
  0
LINE
  5
63
100
AcDbEntity
  8
LAYER_1
 62
     7
100
AcDbLine
 10
191.068785
 20
84.651853
 30
0.0
 11
180.716618
 21
95.004365
 31
0.0
  0
LINE
  5
62
100
AcDbEntity
  8
LAYER_1
 62
     7
100
AcDbLine
 10
191.031578
 20
85.964779
 30
0.0
 11
182.000949
 21
94.995407
 31
0.0
  0
LINE
  5
61
100
AcDbEntity
  8
LAYER_1
 62
     7
100
AcDbLine
 10
190.937872
 20
87.33386
 30
0.0
 11
183.257376
 21
95.014355
 31
0.0
  0
LINE
  5
60
100
AcDbEntity
  8
LAYER_1
 62
     7
100
AcDbLine
 10
178.700892
 20
71.510881
 30
0.0
 11
155.207753
 21
95.004365
 31
0.0
  0
LINE
  5
5F
100
AcDbEntity
  8
LAYER_1
 62
     7
100
AcDbLine
 10
180.013818
 20
71.473674
 30
0.0
 11
156.492084
 21
94.995407
 31
0.0
  0
LINE
  5
5E
100
AcDbEntity
  8
LAYER_1
 62
     7
100
AcDbLine
 10
181.3264
 20
71.436466
 30
0.0
 11
157.748511
 21
95.014355
 31
0.0
  0
LINE
  5
5D
100
AcDbEntity
  8
LAYER_1
 62
     7
100
AcDbLine
 10
153.192027
 20
71.510881
 30
0.0
 11
129.698543
 21
95.004365
 31
0.0
  0
LINE
  5
5C
100
AcDbEntity
  8
LAYER_1
 62
     7
100
AcDbLine
 10
154.504953
 20
71.473674
 30
0.0
 11
130.983219
 21
94.995407
 31
0.0
  0
LINE
  5
5B
100
AcDbEntity
  8
LAYER_1
 62
     7
100
AcDbLine
 10
155.81719
 20
71.436466
 30
0.0
 11
132.239646
 21
95.014355
 31
0.0
  0
LINE
  5
5A
100
AcDbEntity
  8
LAYER_1
 62
     7
100
AcDbLine
 10
127.683162
 20
71.510881
 30
0.0
 11
104.189678
 21
95.004365
 31
0.0
  0
LINE
  5
59
100
AcDbEntity
  8
LAYER_1
 62
     7
100
AcDbLine
 10
128.995744
 20
71.473674
 30
0.0
 11
105.474354
 21
94.995407
 31
0.0
  0
LINE
  5
58
100
AcDbEntity
  8
LAYER_1
 62
     7
100
AcDbLine
 10
130.308325
 20
71.436466
 30
0.0
 11
106.730781
 21
95.014355
 31
0.0
  0
LINE
  5
57
100
AcDbEntity
  8
LAYER_1
 62
     7
100
AcDbLine
 10
102.105223
 20
71.579782
 30
0.0
 11
78.680813
 21
95.004365
 31
0.0
  0
LINE
  5
56
100
AcDbEntity
  8
LAYER_1
 62
     7
100
AcDbLine
 10
103.417977
 20
71.54292
 30
0.0
 11
79.965317
 21
94.995407
 31
0.0
  0
LINE
  5
55
100
AcDbEntity
  8
LAYER_1
 62
     7
100
AcDbLine
 10
104.693007
 20
71.54292
 30
0.0
 11
81.221743
 21
95.014355
 31
0.0
  0
LINE
  5
54
100
AcDbEntity
  8
LAYER_1
 62
     7
100
AcDbLine
 10
76.6408
 20
71.535341
 30
0.0
 11
38.716672
 21
109.459296
 31
0.0
  0
LINE
  5
53
100
AcDbEntity
  8
LAYER_1
 62
     7
100
AcDbLine
 10
77.953381
 20
71.498478
 30
0.0
 11
38.716672
 21
110.734671
 31
0.0
  0
LINE
  5
52
100
AcDbEntity
  8
LAYER_1
 62
     7
100
AcDbLine
 10
79.246498
 20
71.480219
 30
0.0
 11
38.716672
 21
112.01039
 31
0.0
  0
LINE
  5
51
100
AcDbEntity
  8
LAYER_1
 62
     7
100
AcDbLine
 10
113.104896
 20
101.636863
 30
0.0
 11
71.29694
 21
101.636863
 31
0.0
  0
LINE
  5
50
100
AcDbEntity
  8
LAYER_1
 62
     7
100
AcDbLine
 10
137.405566
 20
101.636863
 30
0.0
 11
117.041607
 21
101.636863
 31
0.0
  0
LINE
  5
4F
100
AcDbEntity
  8
LAYER_1
 62
     7
100
AcDbLine
 10
191.144233
 20
101.58622
 30
0.0
 11
142.805065
 21
101.58622
 31
0.0
  0
POLYLINE
  5
4A
100
AcDbEntity
  8
LAYER_1
 62
     7
100
AcDb2dPolyline
 66
     1
 10
0.0
 20
0.0
 30
0.0
  0
VERTEX
  5
4B
100
AcDbEntity
  8
LAYER_1
 62
     7
100
AcDbVertex
100
AcDb2dVertex
 10
66.057639
 20
107.321615
 30
0.0
  0
VERTEX
  5
4C
100
AcDbEntity
  8
LAYER_1
 62
     7
100
AcDbVertex
100
AcDb2dVertex
 10
88.211325
 20
107.321615
 30
0.0
  0
VERTEX
  5
4D
100
AcDbEntity
  8
LAYER_1
 62
     7
100
AcDbVertex
100
AcDb2dVertex
 10
191.144233
 20
107.321615
 30
0.0
  0
SEQEND
  5
4E
100
AcDbEntity
  8
LAYER_1
 62
     7
  0
LINE
  5
49
100
AcDbEntity
  8
LAYER_1
 62
     7
100
AcDbLine
 10
41.205409
 20
71.519838
 30
0.0
 11
41.205409
 21
178.665752
 31
0.0
  0
MTEXT
  5
48
100
AcDbEntity
  8
LAYER_1
 62
     7
100
AcDbMText
 10
89.46
 20
161.559382
 30
0.0
 40
2.524645
 41
0.0
 71
     1
 72
     2
  1
\W0.50;\fMS Gothic|b0|i0|c128;ボード
  7
KANJISTD
210
0.0
220
0.0
230
1.0
 11
1.000001
 21
0.0
 31
0.0
 73
     1
 44
1.0
  0
MTEXT
  5
47
100
AcDbEntity
  8
LAYER_1
 62
     7
100
AcDbMText
 10
90.772409
 20
143.598893
 30
0.0
 40
2.524645
 41
0.0
 71
     1
 72
     2
  1
\W0.50;\fMS Gothic|b0|i0|c128;成形緩衝材
  7
KANJISTD
210
0.0
220
0.0
230
1.0
 11
1.000001
 21
0.0
 31
0.0
 73
     1
 44
1.0
  0
INSERT
  5
33
100
AcDbEntity
  8
LAYER_1
 62
     7
100
AcDbBlockReference
  2
AI9-BLK1
 10
67.768387
 20
102.641969
 30
0.0
  0
POLYLINE
  5
2A
100
AcDbEntity
  8
レイヤー_1
 62
     7
100
AcDb2dPolyline
 66
     1
 10
0.0
 20
0.0
 30
0.0
 70
     1
  0
VERTEX
  5
2B
100
AcDbEntity
  8
レイヤー_1
 62
     7
100
AcDbVertex
100
AcDb2dVertex
 10
112.620516
 20
230.502382
 30
0.0
  0
VERTEX
  5
2C
100
AcDbEntity
  8
レイヤー_1
 62
     7
100
AcDbVertex
100
AcDb2dVertex
 10
112.620516
 20
241.187001
 30
0.0
  0
VERTEX
  5
2D
100
AcDbEntity
  8
レイヤー_1
 62
     7
100
AcDbVertex
100
AcDb2dVertex
 10
8.258583
 20
241.187001
 30
0.0
  0
VERTEX
  5
2E
100
AcDbEntity
  8
レイヤー_1
 62
     7
100
AcDbVertex
100
AcDb2dVertex
 10
8.258583
 20
230.502382
 30
0.0
  0
SEQEND
  5
2F
100
AcDbEntity
  8
レイヤー_1
 62
     7
  0
MTEXT
  5
29
100
AcDbEntity
  8
レイヤー_1
 62
     7
100
AcDbMText
 10
12.373233
 20
238.966692
 30
0.0
 40
5.062623
 41
0.0
 71
     1
 72
     2
  1
\W0.50;\fMS Gothic|b0|i0|c128;■乾式保護工法標準納まり詳細図
  7
KANJISTD
210
0.0
220
0.0
230
1.0
 11
1.000001
 21
0.0
 31
0.0
 73
     1
 44
1.0
  0
ENDSEC
  0
SECTION
  2
OBJECTS
  0
DICTIONARY
  5
19
100
AcDbDictionary
280
     0
281
     1
  3
ACAD_GROUP
350
1A
  3
ACAD_MLINESTYLE
350
1B
  3
ACAD_LAYOUT
350
1E
  3
ACAD_PLOTSETTINGS
350
22
  3
ACAD_PLOTSTYLENAME
350
1F
  3
ACAD_WIPEOUT_VARS
350
23
  0
DICTIONARY
  5
1A
102
{ACAD_REACTORS
330
19
102
}
100
AcDbDictionary
280
     0
281
     1
  0
DICTIONARY
  5
1B
102
{ACAD_REACTORS
330
19
102
}
100
AcDbDictionary
280
     0
281
     1
  3
Standard
350
1C
  0
MLINESTYLE
  5
1C
102
{ACAD_REACTORS
330
1B
102
}
100
AcDbMlineStyle
  2
Standard
 70
     0
  3

 62
     0
 51
90.0
 52
90.0
 71
     2
 49
0.5
 62
   256
  6
BYLAYER
 49
-0.5
 62
   256
  6
BYLAYER
  0
ACDBDICTIONARYWDFLT
  5
1F
102
{ACAD_REACTORS
330
19
102
}
100
AcDbDictionary
281
     1
  3
Normal
350
1D
100
AcDbDictionaryWithDefault
340
1D
  0
ACDBPLACEHOLDER
  5
1D
102
{ACAD_REACTORS
330
1F
102
}
  0
LAYOUT
  5
20
102
{ACAD_REACTORS
330
1E
102
}
100
AcDbPlotSettings
  1

  2

  4

  6

 40
0.0
 41
0.0
 42
0.0
 43
0.0
 44
0.0
 45
0.0
 46
0.0
 47
0.0
 48
0.0
 49
0.0
140
0.0
141
0.0
142
1.0
143
1.0
 70
  1024
 72
     0
 73
     0
 74
     0
  7

 75
     0
147
1.0
148
0.0
149
0.0
100
AcDbLayout
  1
Model
 70
     0
 71
     0
 10
0.0
 20
0.0
 11
0.0
 21
0.0
 12
0.0
 22
0.0
 32
0.0
 14
0.0
 24
0.0
 34
0.0
 15
0.0
 25
0.0
 35
0.0
146
0.0
 13
0.0
 23
0.0
 33
0.0
 16
0.0
 26
0.0
 36
0.0
 17
0.0
 27
0.0
 37
0.0
 76
     0
330
A
331
0
345
0
346
0
  0
LAYOUT
  5
21
102
{ACAD_REACTORS
330
1E
102
}
100
AcDbPlotSettings
  1

  2

  4

  6

 40
0.0
 41
0.0
 42
0.0
 43
0.0
 44
0.0
 45
0.0
 46
0.0
 47
0.0
 48
0.0
 49
0.0
140
0.0
141
0.0
142
1.0
143
1.0
 70
     0
 72
     0
 73
     0
 74
     0
  7

 75
     0
147
1.0
148
0.0
149
0.0
100
AcDbLayout
  1
Layout1
 70
     0
 71
     0
 10
0.0
 20
0.0
 11
0.0
 21
0.0
 12
0.0
 22
0.0
 32
0.0
 14
0.0
 24
0.0
 34
0.0
 15
0.0
 25
0.0
 35
0.0
146
0.0
 13
0.0
 23
0.0
 33
0.0
 16
0.0
 26
0.0
 36
0.0
 17
0.0
 27
0.0
 37
0.0
 76
     0
330
B
331
0
345
0
346
0
  0
DICTIONARY
  5
1E
102
{ACAD_REACTORS
330
19
102
}
100
AcDbDictionary
280
     0
281
     1
  3
Layout1
350
21
  3
Model
350
20
  0
DICTIONARY
  5
22
102
{ACAD_REACTORS
330
19
102
}
100
AcDbDictionary
280
     0
281
     1
  0
WIPEOUTVARIABLES
  5
23
100
AcDbWipeoutVariables
 70
     1
  0
ENDSEC
  0
EOF
