  0
SECTION
  2
HEADER
  9
$ACADVER
  1
AC1015
  9
$ACADMAINTVER
 70
     6
  9
$DWGCODEPAGE
  3
ANSI_932
  9
$INSBASE
 10
0.0
 20
0.0
 30
0.0
  9
$EXTMIN
 10
4.938889
 20
60.194086
 30
1.000000E+20
  9
$EXTMAX
 10
203.905556
 20
236.267921
 30
-1.000000E+20
  9
$LIMMIN
 10
4.938889
 20
60.194086
  9
$LIMMAX
 10
203.905556
 20
236.267921
  9
$ORTHOMODE
 70
     0
  9
$REGENMODE
 70
     1
  9
$FILLMODE
 70
     1
  9
$QTEXTMODE
 70
     0
  9
$MIRRTEXT
 70
     1
  9
$LTSCALE
 40
1.0
  9
$ATTMODE
 70
     1
  9
$TEXTSIZE
 40
0.2
  9
$TRACEWID
 40
0.05
  9
$TEXTSTYLE
  7
Standard
  9
$CLAYER
  8
0
  9
$CELTYPE
  6
Continuous
  9
$CECOLOR
 62
   256
  9
$CELTSCALE
 40
1.0
  9
$DISPSILH
 70
     0
  9
$DIMSCALE
 40
1.0
  9
$DIMASZ
 40
0.18
  9
$DIMEXO
 40
0.0625
  9
$DIMDLI
 40
0.38
  9
$DIMRND
 40
0.0
  9
$DIMDLE
 40
0.0
  9
$DIMEXE
 40
0.18
  9
$DIMTP
 40
0.0
  9
$DIMTM
 40
0.0
  9
$DIMTXT
 40
0.18
  9
$DIMCEN
 40
0.09
  9
$DIMTSZ
 40
0.0
  9
$DIMTOL
 70
     0
  9
$DIMLIM
 70
     0
  9
$DIMTIH
 70
     1
  9
$DIMTOH
 70
     1
  9
$DIMSE1
 70
     0
  9
$DIMSE2
 70
     0
  9
$DIMTAD
 70
     0
  9
$DIMZIN
 70
     0
  9
$DIMBLK
  1

  9
$DIMASO
 70
     1
  9
$DIMSHO
 70
     1
  9
$DIMPOST
  1

  9
$DIMAPOST
  1

  9
$DIMALT
 70
     0
  9
$DIMALTD
 70
     2
  9
$DIMALTF
 40
25.4
  9
$DIMLFAC
 40
1.0
  9
$DIMTOFL
 70
     0
  9
$DIMTVP
 40
0.0
  9
$DIMTIX
 70
     0
  9
$DIMSOXD
 70
     0
  9
$DIMSAH
 70
     0
  9
$DIMBLK1
  1

  9
$DIMBLK2
  1

  9
$DIMSTYLE
  2
Standard
  9
$DIMCLRD
 70
     0
  9
$DIMCLRE
 70
     0
  9
$DIMCLRT
 70
     0
  9
$DIMTFAC
 40
1.0
  9
$DIMGAP
 40
0.09
  9
$DIMJUST
 70
     0
  9
$DIMSD1
 70
     0
  9
$DIMSD2
 70
     0
  9
$DIMTOLJ
 70
     1
  9
$DIMTZIN
 70
     0
  9
$DIMALTZ
 70
     0
  9
$DIMALTTZ
 70
     0
  9
$DIMUPT
 70
     0
  9
$DIMDEC
 70
     4
  9
$DIMTDEC
 70
     4
  9
$DIMALTU
 70
     2
  9
$DIMALTTD
 70
     2
  9
$DIMTXSTY
  7
Standard
  9
$DIMAUNIT
 70
     0
  9
$DIMADEC
 70
     0
  9
$DIMALTRND
 40
0.0
  9
$DIMAZIN
 70
     0
  9
$DIMDSEP
 70
     0
  9
$DIMATFIT
 70
     3
  9
$DIMFRAC
 70
     0
  9
$DIMLDRBLK
  1

  9
$DIMLUNIT
 70
     2
  9
$DIMLWD
 70
     0
  9
$DIMLWE
 70
     0
  9
$DIMTMOVE
 70
     0
  9
$LUNITS
 70
     2
  9
$LUPREC
 70
     4
  9
$SKETCHINC
 40
0.1
  9
$FILLETRAD
 40
0.0
  9
$AUNITS
 70
     0
  9
$AUPREC
 70
     0
  9
$MENU
  1
acad
  9
$ELEVATION
 40
0.0
  9
$PELEVATION
 40
0.0
  9
$THICKNESS
 40
0.0
  9
$LIMCHECK
 70
     0
  9
$CHAMFERA
 40
0.0
  9
$CHAMFERB
 40
0.0
  9
$CHAMFERC
 40
0.0
  9
$CHAMFERD
 40
0.0
  9
$SKPOLY
 70
     0
  9
$TDCREATE
 40
0.000000000
  9
$TDUCREATE
 40
0.000000000
  9
$TDUPDATE
 40
0.000000000
  9
$TDUUPDATE
 40
0.000000000
  9
$TDINDWG
 40
0.0000000000
  9
$TDUSRTIMER
 40
0.0000000000
  9
$USRTIMER
 70
     1
  9
$ANGBASE
 50
0.0
  9
$ANGDIR
 70
     0
  9
$PDMODE
 70
     0
  9
$PDSIZE
 40
0.0
  9
$PLINEWID
 40
0.0
  9
$SPLFRAME
 70
     0
  9
$SPLINETYPE
 70
     6
  9
$SPLINESEGS
 70
     8
  9
$HANDSEED
  5
1EE
  9
$SURFTAB1
 70
     6
  9
$SURFTAB2
 70
     6
  9
$SURFTYPE
 70
     6
  9
$SURFU
 70
     6
  9
$SURFV
 70
     6
  9
$UCSBASE
  2

  9
$UCSNAME
  2

  9
$UCSORG
 10
0.0
 20
0.0
 30
0.0
  9
$UCSXDIR
 10
1.0
 20
0.0
 30
0.0
  9
$UCSYDIR
 10
0.0
 20
1.0
 30
0.0
  9
$UCSORTHOREF
  2

  9
$UCSORTHOVIEW
 70
     0
  9
$UCSORGTOP
 10
0.0
 20
0.0
 30
0.0
  9
$UCSORGBOTTOM
 10
0.0
 20
0.0
 30
0.0
  9
$UCSORGLEFT
 10
0.0
 20
0.0
 30
0.0
  9
$UCSORGRIGHT
 10
0.0
 20
0.0
 30
0.0
  9
$UCSORGFRONT
 10
0.0
 20
0.0
 30
0.0
  9
$UCSORGBACK
 10
0.0
 20
0.0
 30
0.0
  9
$PUCSBASE
  2

  9
$PUCSNAME
  2

  9
$PUCSORG
 10
0.0
 20
0.0
 30
0.0
  9
$PUCSXDIR
 10
1.0
 20
0.0
 30
0.0
  9
$PUCSYDIR
 10
0.0
 20
1.0
 30
0.0
  9
$PUCSORTHOREF
  2

  9
$PUCSORTHOVIEW
 70
     0
  9
$PUCSORGTOP
 10
0.0
 20
0.0
 30
0.0
  9
$PUCSORGBOTTOM
 10
0.0
 20
0.0
 30
0.0
  9
$PUCSORGLEFT
 10
0.0
 20
0.0
 30
0.0
  9
$PUCSORGRIGHT
 10
0.0
 20
0.0
 30
0.0
  9
$PUCSORGFRONT
 10
0.0
 20
0.0
 30
0.0
  9
$PUCSORGBACK
 10
0.0
 20
0.0
 30
0.0
  9
$USERI1
 70
     0
  9
$USERI2
 70
     0
  9
$USERI3
 70
     0
  9
$USERI4
 70
     0
  9
$USERI5
 70
     0
  9
$USERR1
 40
0.0
  9
$USERR2
 40
0.0
  9
$USERR3
 40
0.0
  9
$USERR4
 40
0.0
  9
$USERR5
 40
0.0
  9
$WORLDVIEW
 70
     1
  9
$SHADEDGE
 70
     3
  9
$SHADEDIF
 70
    70
  9
$TILEMODE
 70
     1
  9
$MAXACTVP
 70
    16
  9
$PINSBASE
 10
0.0
 20
0.0
 30
0.0
  9
$PLIMCHECK
 70
     0
  9
$PEXTMIN
 10
1.000000E+20
 20
1.000000E+20
 30
1.000000E+20
  9
$PEXTMAX
 10
-1.000000E+20
 20
-1.000000E+20
 30
-1.000000E+20
  9
$PLIMMIN
 10
0.0
 20
0.0
  9
$PLIMMAX
 10
12.0
 20
9.0
  9
$UNITMODE
 70
     0
  9
$VISRETAIN
 70
     0
  9
$PLINEGEN
 70
     1
  9
$PSLTSCALE
 70
     0
  9
$TREEDEPTH
 70
  3020
  9
$CMLSTYLE
  2
Standard
  9
$CMLJUST
 70
     0
  9
$CMLSCALE
 40
1.0
  9
$PROXYGRAPHICS
 70
     0
  9
$MEASUREMENT
 70
     0
  9
$CELWEIGHT
370
     0
  9
$ENDCAPS
280
     0
  9
$JOINSTYLE
280
     0
  9
$LWDISPLAY
290
     0
  9
$INSUNITS
 70
     0
  9
$HYPERLINKBASE
  1

  9
$XEDIT
290
     1
  9
$CEPSNTYPE
380
     0
  9
$PSTYLEMODE
290
     1
  9
$FINGERPRINTGUID
  2

  9
$VERSIONGUID
  2

  9
$EXTNAMES
290
     1
  9
$PSVPSCALE
 40
0.0
  0
ENDSEC
  0
SECTION
  2
CLASSES
  0
CLASS
  1
LWPOLYLINE
  2
AcDbPolyline
  3
"AutoCAD"
 90
        0
280
     0
281
     1
  0
CLASS
  1
IMAGE
  2
AcDbRasterImage
  3
ISM
 90
      127
280
     0
281
     1
  0
CLASS
  1
OLE2FRAME
  2
AcDbOle2Frame
  3
""
 90
        0
280
     0
281
     1
  0
CLASS
  1
HATCH
  2
AcDbHatch
  3
"ACAD_SEDONA"
 90
        0
280
     0
281
     1
  0
CLASS
  1
DICTIONARYVAR
  2
AcDbDictionaryVar
  3
"AutoCAD"
 90
        0
280
     0
281
     0
  0
CLASS
  1
RASTERVARIABLES
  2
AcDbRasterVariables
  3
ISM
 90
        0
280
     0
281
     0
  0
CLASS
  1
IMAGEDEF
  2
AcDbRasterImageDef
  3
ISM
 90
        0
280
     0
281
     0
  0
CLASS
  1
IMAGEDEF_REACTOR
  2
AcDbRasterImageDefReactor
  3
ISM
 90
        1
280
     0
281
     0
  0
CLASS
  1
IDBUFFER
  2
AcDbIdBuffer
  3
"Acad"
 90
        0
280
     0
281
     0
  0
CLASS
  1
SPATIAL_FILTER
  2
AcDbSpatialFilter
  3
"Acad"
 90
        0
280
     0
281
     0
  0
CLASS
  1
XRECORD
  2
AcDbXrecord
  3
"<Built In>"
 90
        0
280
     0
281
     0
  0
CLASS
  1
SORTENTSTABLE
  2
AcDbSortentsTable
  3
"AutoCAD"
 90
        0
280
     0
281
     0
  0
CLASS
  1
LAYER_INDEX
  2
AcDbLayerIndex
  3
"Acad"
 90
        0
280
     0
281
     0
  0
CLASS
  1
SPATIAL_INDEX
  2
AcDbSpatialIndex
  3
"Acad"
 90
        0
280
     0
281
     0
  0
CLASS
  1
OBJECT_PTR
  2
CAseDLPNTableRecord
  3
"ASE-LPNTableRecord"
 90
        1
280
     0
281
     0
  0
CLASS
  1
LAYOUT
  2
AcDbLayout
  3
"AutoCAD 2000"
 90
        1
280
     0
281
     0
  0
CLASS
  1
PLOTSETTINGS
  2
AcDbPlotSettings
  3
"AutoCAD 2000"
 90
        1
280
     0
281
     0
  0
CLASS
  1
ACDBDICTIONARYWDFLT
  2
AcDbDictionaryWithDefault
  3
"AutoCAD 2000"
 90
        1
280
     0
281
     0
  0
CLASS
  1
ACDBPLACEHOLDER
  2
AcDbPlaceHolder
  3
"AutoCAD 2000"
 90
        1
280
     0
281
     0
  0
CLASS
  1
VBA_PROJECT
  2
AcDbVbaProject
  3
"acadvba"
 90
        1
280
     0
281
     0
  0
CLASS
  1
WIPEOUT
  2
AcDbWipeout
  3
WipeOut|AutoCAD Express Tool|expresstools@autodesk.com
 90
      127
280
     0
281
     1
  0
CLASS
  1
WIPEOUTVARIABLES
  2
AcDbWipeoutVariables
  3
WipeOut|AutoCAD Express Tool|expresstools@autodesk.com
 90
        0
280
     0
281
     0
  0
CLASS
  1
RTEXT
  2
RText
  3
RText|AutoCAD Express Tool|expresstools@autodesk.com
 90
        0
280
     0
281
     1
  0
CLASS
  1
ARCALIGNEDTEXT
  2
AcDbArcAlignedText
  3
ATEXT|AutoCAD Express Tool|expresstools@autodesk.com
 90
        0
280
     0
281
     1
  0
ENDSEC
  0
SECTION
  2
TABLES
  0
TABLE
  2
VPORT
  5
7
100
AcDbSymbolTable
 70
     1
  0
VPORT
  5
15
100
AcDbSymbolTableRecord
100
AcDbViewportTableRecord
  2
*ACTIVE
 70
     0
 10
0.0
 20
0.0
 11
1.0
 21
1.0
 12
6.591288
 22
4.579184
 13
0.0
 23
0.0
 14
1.0
 24
1.0
 15
0.0
 25
0.0
 16
0.0
 26
0.0
 36
1.0
 17
0.0
 27
0.0
 37
0.0
 40
9.158369
 41
0.688564
 42
50.0
 43
0.0
 44
0.0
 50
0.0
 51
0.0
 71
     0
 72
   100
 73
     1
 74
     1
 75
     0
 76
     0
 77
     0
 78
     0
281
     0
 65
     0
110
0.0
120
0.0
130
0.0
111
1.0
121
0.0
131
0.0
112
0.0
122
1.0
132
0.0
345
0
346
0
 79
     0
146
0.0
  0
ENDTAB
  0
TABLE
  2
LTYPE
  5
4
100
AcDbSymbolTable
 70
     3
  0
LTYPE
  5
11
100
AcDbSymbolTableRecord
100
AcDbLinetypeTableRecord
  2
ByBlock
 70
    64
  3

 72
    65
 73
     0
 40
0.0
  0
LTYPE
  5
12
100
AcDbSymbolTableRecord
100
AcDbLinetypeTableRecord
  2
ByLayer
 70
    64
  3

 72
    65
 73
     0
 40
0.0
  0
LTYPE
  5
13
100
AcDbSymbolTableRecord
100
AcDbLinetypeTableRecord
  2
Continuous
 70
    64
  3
Solid line
 72
    65
 73
     0
 40
0.0
  0
ENDTAB
  0
TABLE
  2
LAYER
  5
2
100
AcDbSymbolTable
 70
     4
  0
LAYER
  5
14
100
AcDbSymbolTableRecord
100
AcDbLayerTableRecord
  2
0
 70
     0
 62
     7
  6
Continuous
290
     1
370
    -3
390
1D
  0
LAYER
  5
28
100
AcDbSymbolTableRecord
100
AcDbLayerTableRecord
  2
レイヤー_1
 70
     0
 62
   160
  6
Continuous
290
     1
370
    -3
390
1F
  0
LAYER
  5
29
100
AcDbSymbolTableRecord
100
AcDbLayerTableRecord
  2
0
 70
     0
 62
     7
  6
Continuous
290
     1
370
    -3
390
1F
  0
LAYER
  5
2A
100
AcDbSymbolTableRecord
100
AcDbLayerTableRecord
  2
LAYER_1
 70
     0
 62
     7
  6
Continuous
290
     1
370
    -3
390
1F
  0
ENDTAB
  0
TABLE
  2
STYLE
  5
3
100
AcDbSymbolTable
 70
     5
  0
STYLE
  5
17
100
AcDbSymbolTableRecord
100
AcDbTextStyleTableRecord
  2
Standard
 70
     0
 40
0.0
 41
1.0
 50
0.0
 71
     0
 42
0.0
  3
txt
  4

  0
STYLE
  5
24
100
AcDbSymbolTableRecord
100
AcDbTextStyleTableRecord
  2
STD
 70
     0
 40
0.0
 41
1.0
 50
0.0
 71
     0
 42
0.0
  3
txt
  4

  0
STYLE
  5
25
100
AcDbSymbolTableRecord
100
AcDbTextStyleTableRecord
  2
TATESTD
 70
     4
 40
0.0
 41
1.0
 50
0.0
 71
     0
 42
0.0
  3
txt
  4

  0
STYLE
  5
26
100
AcDbSymbolTableRecord
100
AcDbTextStyleTableRecord
  2
KANJISTD
 70
     0
 40
0.0
 41
1.0
 50
0.0
 71
     0
 42
0.0
  3
txt
  4
extfont
  0
STYLE
  5
27
100
AcDbSymbolTableRecord
100
AcDbTextStyleTableRecord
  2
KANJITATE
 70
     4
 40
0.0
 41
1.0
 50
0.0
 71
     0
 42
0.0
  3
txt
  4
extfont
  0
ENDTAB
  0
TABLE
  2
VIEW
  5
5
100
AcDbSymbolTable
 70
     0
  0
ENDTAB
  0
TABLE
  2
UCS
  5
6
100
AcDbSymbolTable
 70
     0
  0
ENDTAB
  0
TABLE
  2
APPID
  5
8
100
AcDbSymbolTable
 70
     1
  0
APPID
  5
16
100
AcDbSymbolTableRecord
100
AcDbRegAppTableRecord
  2
ACAD
 70
     0
  0
ENDTAB
  0
TABLE
  2
DIMSTYLE
  5
9
100
AcDbSymbolTable
 70
     1
100
AcDbDimStyleTable
 71
     0
  0
DIMSTYLE
105
18
100
AcDbSymbolTableRecord
100
AcDbDimStyleTableRecord
  2
Standard
 70
     0
  3

  4

 40
1.0
 41
0.18
 42
0.0625
 43
0.38
 44
0.18
 45
0.0
 46
0.0
 47
0.0
 48
0.0
 71
     0
 72
     0
 73
     1
 74
     1
 75
     0
 76
     0
 77
     0
 78
     0
 79
     0
140
0.18
141
0.09
142
0.0
143
25.4
144
1.0
145
0.0
146
1.0
147
0.09
148
0.0
170
     0
171
     2
172
     0
173
     0
174
     0
175
     0
176
     0
177
     0
178
     0
179
     0
271
     4
272
     4
273
     2
274
     2
275
     0
276
     0
277
     2
278
    46
279
     0
280
     0
281
     0
282
     0
283
     1
284
     0
285
     0
286
     0
288
     0
340
17
341
0
342
0
343
0
344
0
371
    -2
372
    -2
  0
ENDTAB
  0
TABLE
  2
BLOCK_RECORD
  5
1
100
AcDbSymbolTable
 70
     1
  0
BLOCK_RECORD
  5
A
100
AcDbSymbolTableRecord
100
AcDbBlockTableRecord
  2
*MODEL_SPACE
340
20
  0
BLOCK_RECORD
  5
B
100
AcDbSymbolTableRecord
100
AcDbBlockTableRecord
  2
*PAPER_SPACE
340
21
  0
BLOCK_RECORD
  5
2B
100
AcDbSymbolTableRecord
100
AcDbBlockTableRecord
  2
AI9-BLK1
340
0
  0
ENDTAB
  0
ENDSEC
  0
SECTION
  2
BLOCKS
  0
BLOCK
  5
D
100
AcDbEntity
  8
0
100
AcDbBlockBegin
  2
*MODEL_SPACE
 70
     0
 10
0.0
 20
0.0
 30
0.0
  3
*MODEL_SPACE
  1

  0
ENDBLK
  5
E
100
AcDbEntity
  8
0
100
AcDbBlockEnd
  0
BLOCK
  5
F
100
AcDbEntity
 67
     1
  8
0
100
AcDbBlockBegin
  2
*PAPER_SPACE
 70
     0
 10
0.0
 20
0.0
 30
0.0
  3
*PAPER_SPACE
  1

  0
ENDBLK
  5
10
100
AcDbEntity
 67
     1
  8
0
100
AcDbBlockEnd
  0
BLOCK
  5
2D
100
AcDbEntity
  8
LAYER_1
 62
     7
100
AcDbBlockBegin
  2
AI9-BLK1
 70
     0
 10
0.0
 20
0.0
 30
0.0
  3
AI9-BLK1
  1

  0
LINE
  5
3C
100
AcDbEntity
  8
LAYER_1
 62
     7
100
AcDbLine
 10
0.990034
 20
3.992004
 30
0.0
 11
-0.877207
 21
2.124418
 31
0.0
  0
LINE
  5
3B
100
AcDbEntity
  8
LAYER_1
 62
     7
100
AcDbLine
 10
0.913898
 20
0.294039
 30
0.0
 11
-0.967813
 21
-1.587672
 31
0.0
  0
LINE
  5
3A
100
AcDbEntity
  8
LAYER_1
 62
     7
100
AcDbLine
 10
0.902701
 20
-3.340537
 30
0.0
 11
0.497213
 21
-3.74568
 31
0.0
  0
LINE
  5
39
100
AcDbEntity
  8
LAYER_1
 62
     7
100
AcDbLine
 10
0.897534
 20
2.088589
 30
0.0
 11
-0.962818
 21
0.228238
 31
0.0
  0
LINE
  5
38
100
AcDbEntity
  8
LAYER_1
 62
     7
100
AcDbLine
 10
0.879102
 20
-1.552877
 30
0.0
 11
-0.424866
 21
-2.85719
 31
0.0
  0
LINE
  5
37
100
AcDbEntity
  8
LAYER_1
 62
     7
100
AcDbLine
 10
0.107229
 20
4.121195
 30
0.0
 11
0.908041
 21
3.320211
 31
0.0
  0
LINE
  5
36
100
AcDbEntity
  8
LAYER_1
 62
     7
100
AcDbLine
 10
-0.973326
 20
-0.428053
 30
0.0
 11
0.878413
 21
-2.280136
 31
0.0
  0
LINE
  5
35
100
AcDbEntity
  8
LAYER_1
 62
     7
100
AcDbLine
 10
-0.981249
 20
1.502234
 30
0.0
 11
0.899256
 21
-0.377755
 31
0.0
  0
LINE
  5
34
100
AcDbEntity
  8
LAYER_1
 62
     7
100
AcDbLine
 10
-0.971603
 20
3.275769
 30
0.0
 11
0.908558
 21
1.395436
 31
0.0
  0
POLYLINE
  5
2F
100
AcDbEntity
  8
LAYER_1
 62
     7
100
AcDb2dPolyline
 66
     1
 10
0.0
 20
0.0
 30
0.0
  0
VERTEX
  5
30
100
AcDbEntity
  8
LAYER_1
 62
     7
100
AcDbVertex
100
AcDb2dVertex
 10
0.91028
 20
-4.121195
 30
0.0
  0
VERTEX
  5
31
100
AcDbEntity
  8
LAYER_1
 62
     7
100
AcDbVertex
100
AcDb2dVertex
 10
0.90873
 20
4.097769
 30
0.0
  0
VERTEX
  5
32
100
AcDbEntity
  8
LAYER_1
 62
     7
100
AcDbVertex
100
AcDb2dVertex
 10
-0.918376
 20
4.097769
 30
0.0
  0
SEQEND
  5
33
100
AcDbEntity
  8
LAYER_1
 62
     7
  0
LINE
  5
2E
100
AcDbEntity
  8
LAYER_1
 62
     7
100
AcDbLine
 10
0.903562
 20
3.905532
 30
0.0
 11
-0.990034
 21
2.011764
 31
0.0
  0
ENDBLK
  5
3D
100
AcDbEntity
  8
LAYER_1
100
AcDbBlockEnd
  0
ENDSEC
  0
SECTION
  2
ENTITIES
  0
MTEXT
  5
1ED
100
AcDbEntity
  8
LAYER_1
 62
     7
100
AcDbMText
 10
42.536594
 20
194.038408
 30
0.0
 40
2.612367
 41
0.0
 71
     1
 72
     2
  1
\W0.50;\fMS Gothic|b0|i0|c128;シーリング材
  7
KANJISTD
210
0.0
220
0.0
230
1.0
 11
1.000001
 21
0.0
 31
0.0
 73
     1
 44
1.0
  0
MTEXT
  5
1EC
100
AcDbEntity
  8
LAYER_1
 62
     7
100
AcDbMText
 10
33.275144
 20
185.200016
 30
0.0
 40
2.612367
 41
0.0
 71
     1
 72
     2
  1
\W0.50;\fMS Gothic|b0|i0|c128;ゴムアスファルト系シール材
  7
KANJISTD
210
0.0
220
0.0
230
1.0
 11
1.000001
 21
0.0
 31
0.0
 73
     1
 44
1.0
  0
MTEXT
  5
1EB
100
AcDbEntity
  8
LAYER_1
 62
     7
100
AcDbMText
 10
56.447028
 20
169.197892
 30
0.0
 40
2.612367
 41
0.0
 71
     1
 72
     2
  1
\W0.50;\fMS Gothic|b0|i0|c128;押え金物
  7
KANJISTD
210
0.0
220
0.0
230
1.0
 11
1.000001
 21
0.0
 31
0.0
 73
     1
 44
1.0
  0
POLYLINE
  5
1D9
100
AcDbEntity
  8
LAYER_1
 62
     7
100
AcDb2dPolyline
 66
     1
 10
0.0
 20
0.0
 30
0.0
  0
VERTEX
  5
1DA
100
AcDbEntity
  8
LAYER_1
 62
     7
100
AcDbVertex
100
AcDb2dVertex
 10
187.360484
 20
84.807916
 30
0.0
  0
VERTEX
  5
1DB
100
AcDbEntity
  8
LAYER_1
 62
     7
100
AcDbVertex
100
AcDb2dVertex
 10
68.597708
 20
84.807916
 30
0.0
  0
VERTEX
  5
1DC
100
AcDbEntity
  8
LAYER_1
 62
     7
100
AcDbVertex
100
AcDb2dVertex
 10
68.610971
 20
141.162788
 30
0.0
  0
VERTEX
  5
1DD
100
AcDbEntity
  8
LAYER_1
 62
     7
100
AcDbVertex
100
AcDb2dVertex
 10
68.624063
 20
177.291332
 30
0.0
  0
VERTEX
  5
1DE
100
AcDbEntity
  8
LAYER_1
 62
     7
100
AcDbVertex
100
AcDb2dVertex
 10
72.757488
 20
177.299255
 30
0.0
  0
VERTEX
  5
1DF
100
AcDbEntity
  8
LAYER_1
 62
     7
100
AcDbVertex
100
AcDb2dVertex
 10
73.417396
 20
180.578986
 30
0.0
  0
VERTEX
  5
1E0
100
AcDbEntity
  8
LAYER_1
 62
     7
100
AcDbVertex
100
AcDb2dVertex
 10
76.056856
 20
180.578986
 30
0.0
  0
VERTEX
  5
1E1
100
AcDbEntity
  8
LAYER_1
 62
     7
100
AcDbVertex
100
AcDb2dVertex
 10
76.056856
 20
177.246545
 30
0.0
  0
VERTEX
  5
1E2
100
AcDbEntity
  8
LAYER_1
 62
     7
100
AcDbVertex
100
AcDb2dVertex
 10
78.325624
 20
177.253091
 30
0.0
  0
VERTEX
  5
1E3
100
AcDbEntity
  8
LAYER_1
 62
     7
100
AcDbVertex
100
AcDb2dVertex
 10
80.482081
 20
179.434698
 30
0.0
  0
VERTEX
  5
1E4
100
AcDbEntity
  8
LAYER_1
 62
     7
100
AcDbVertex
100
AcDb2dVertex
 10
80.508436
 20
197.246186
 30
0.0
  0
VERTEX
  5
1E5
100
AcDbEntity
  8
LAYER_1
 62
     7
100
AcDbVertex
100
AcDb2dVertex
 10
78.169906
 20
199.60332
 30
0.0
  0
VERTEX
  5
1E6
100
AcDbEntity
  8
LAYER_1
 62
     7
100
AcDbVertex
100
AcDb2dVertex
 10
48.204637
 20
202.513392
 30
0.0
  0
VERTEX
  5
1E7
100
AcDbEntity
  8
LAYER_1
 62
     7
100
AcDbVertex
100
AcDb2dVertex
 10
48.204637
 20
199.047626
 30
0.0
  0
VERTEX
  5
1E8
100
AcDbEntity
  8
LAYER_1
 62
     7
100
AcDbVertex
100
AcDb2dVertex
 10
42.234115
 20
197.068075
 30
0.0
  0
VERTEX
  5
1E9
100
AcDbEntity
  8
LAYER_1
 62
     7
100
AcDbVertex
100
AcDb2dVertex
 10
42.212927
 20
61.187996
 30
0.0
  0
SEQEND
  5
1EA
100
AcDbEntity
  8
LAYER_1
 62
     7
  0
POLYLINE
  5
1D3
100
AcDbEntity
  8
LAYER_1
 62
     7
100
AcDb2dPolyline
 66
     1
 10
0.0
 20
0.0
 30
0.0
  0
VERTEX
  5
1D4
100
AcDbEntity
  8
LAYER_1
 62
     7
100
AcDbVertex
100
AcDb2dVertex
 10
67.939006
 20
177.17661
 30
0.0
  0
VERTEX
  5
1D5
100
AcDbEntity
  8
LAYER_1
 62
     7
100
AcDbVertex
100
AcDb2dVertex
 10
27.436913
 20
177.17661
 30
0.0
  0
VERTEX
  5
1D6
100
AcDbEntity
  8
LAYER_1
 62
     7
100
AcDbVertex
100
AcDb2dVertex
 10
27.436913
 20
85.082145
 30
0.0
  0
VERTEX
  5
1D7
100
AcDbEntity
  8
LAYER_1
 62
     7
100
AcDbVertex
100
AcDb2dVertex
 10
67.244819
 20
85.082145
 30
0.0
  0
SEQEND
  5
1D8
100
AcDbEntity
  8
LAYER_1
 62
     7
  0
POLYLINE
  5
1CE
100
AcDbEntity
  8
LAYER_1
 62
     7
100
AcDb2dPolyline
 66
     1
 10
0.0
 20
0.0
 30
0.0
  0
VERTEX
  5
1CF
100
AcDbEntity
  8
LAYER_1
 62
     7
100
AcDbVertex
100
AcDb2dVertex
 10
26.924799
 20
86.994518
 30
0.0
  0
VERTEX
  5
1D0
100
AcDbEntity
  8
LAYER_1
 62
     7
100
AcDbVertex
100
AcDb2dVertex
 10
27.436913
 20
85.082145
 30
0.0
  0
VERTEX
  5
1D1
100
AcDbEntity
  8
LAYER_1
 62
     7
100
AcDbVertex
100
AcDb2dVertex
 10
27.949026
 20
86.994518
 30
0.0
  0
SEQEND
  5
1D2
100
AcDbEntity
  8
LAYER_1
 62
     7
  0
POLYLINE
  5
1C9
100
AcDbEntity
  8
LAYER_1
 62
     7
100
AcDb2dPolyline
 66
     1
 10
0.0
 20
0.0
 30
0.0
  0
VERTEX
  5
1CA
100
AcDbEntity
  8
LAYER_1
 62
     7
100
AcDbVertex
100
AcDb2dVertex
 10
27.949026
 20
175.165363
 30
0.0
  0
VERTEX
  5
1CB
100
AcDbEntity
  8
LAYER_1
 62
     7
100
AcDbVertex
100
AcDb2dVertex
 10
27.436913
 20
177.077563
 30
0.0
  0
VERTEX
  5
1CC
100
AcDbEntity
  8
LAYER_1
 62
     7
100
AcDbVertex
100
AcDb2dVertex
 10
26.924799
 20
175.165363
 30
0.0
  0
SEQEND
  5
1CD
100
AcDbEntity
  8
LAYER_1
 62
     7
  0
MTEXT
  5
1C8
100
AcDbEntity
  8
LAYER_1
 62
     7
100
AcDbMText
 10
24.078855
 20
118.17401
 30
0.0
 40
2.612367
 41
0.0
 71
     1
 72
     2
  1
\W0.50;\fMS Gothic|b0|i0|c128;水上400以上
  7
KANJISTD
210
0.0
220
0.0
230
1.0
 11
0.0
 21
1.0
 31
0.0
 73
     1
 44
1.0
  0
SPLINE
  5
1C7
100
AcDbEntity
  8
LAYER_1
 62
     7
100
AcDbSpline
210
0.0
220
0.0
230
1.0
 70
     8
 71
     3
 72
    17
 73
    13
 74
     0
 42
0.00000001
 43
0.00000001
 40
0.0
 40
0.0
 40
0.0
 40
0.0
 40
1.0
 40
1.0
 40
1.0
 40
2.0
 40
2.0
 40
2.0
 40
3.0
 40
3.0
 40
3.0
 40
4.0
 40
4.0
 40
4.0
 40
4.0
 10
71.091956922743051
 20
160.37866889105902
 30
0.0
 10
70.893691677517353
 20
160.37729085286458
 30
0.0
 10
70.73315022786457
 20
160.21674940321179
 30
0.0
 10
70.731599934895826
 20
160.01831190321178
 30
0.0
 10
70.824273003472214
 20
159.7799112955729
 30
0.0
 10
71.091095648871516
 20
159.66002197265624
 30
0.0
 10
71.330874294704856
 20
159.7490776909722
 30
0.0
 10
71.406838650173611
 20
159.81815185546873
 30
0.0
 10
71.450419108072907
 20
159.91582031249999
 30
0.0
 10
71.450935872395831
 20
160.01831190321178
 30
0.0
 10
71.449902343749997
 20
160.21640489366317
 30
0.0
 10
71.290049913194437
 20
160.37677408854165
 30
0.0
 10
71.091956922743051
 20
160.37866889105902
 30
0.0
  0
MTEXT
  5
1C6
100
AcDbEntity
  8
LAYER_1
 62
     7
100
AcDbMText
 10
179.328244
 20
119.796601
 30
0.0
 40
2.612367
 41
0.0
 71
     1
 72
     2
  1
\W0.50;\fMS Gothic|b0|i0|c128;ポリエチレンフィルム(t=0.15)
  7
KANJISTD
210
0.0
220
0.0
230
1.0
 11
1.000001
 21
0.0
 31
0.0
 73
     1
 44
1.0
  0
MTEXT
  5
1C5
100
AcDbEntity
  8
LAYER_1
 62
     7
100
AcDbMText
 10
18.991778
 20
218.193827
 30
0.0
 40
4.478362
 41
0.0
 71
     1
 72
     2
  1
\W0.50;\fMS Gothic|b0|i0|c128;●水切りタイプ　ホルダー一体化方式　
  7
KANJISTD
210
0.0
220
0.0
230
1.0
 11
1.000001
 21
0.0
 31
0.0
 73
     1
 44
1.0
  0
POLYLINE
  5
1BF
100
AcDbEntity
  8
LAYER_1
 62
     7
100
AcDb2dPolyline
 66
     1
 10
0.0
 20
0.0
 30
0.0
 70
     1
  0
VERTEX
  5
1C0
100
AcDbEntity
  8
LAYER_1
 62
     7
100
AcDbVertex
100
AcDb2dVertex
 10
117.056765
 20
225.530075
 30
0.0
  0
VERTEX
  5
1C1
100
AcDbEntity
  8
LAYER_1
 62
     7
100
AcDbVertex
100
AcDb2dVertex
 10
117.056765
 20
236.01419
 30
0.0
  0
VERTEX
  5
1C2
100
AcDbEntity
  8
LAYER_1
 62
     7
100
AcDbVertex
100
AcDb2dVertex
 10
9.353434
 20
236.01419
 30
0.0
  0
VERTEX
  5
1C3
100
AcDbEntity
  8
LAYER_1
 62
     7
100
AcDbVertex
100
AcDb2dVertex
 10
9.353434
 20
225.530075
 30
0.0
  0
SEQEND
  5
1C4
100
AcDbEntity
  8
LAYER_1
 62
     7
  0
MTEXT
  5
1BE
100
AcDbEntity
  8
LAYER_1
 62
     7
100
AcDbMText
 10
13.59917
 20
233.722931
 30
0.0
 40
5.224734
 41
0.0
 71
     1
 72
     2
  1
\W0.50;\fMS Gothic|b0|i0|c128;■乾式保護工法標準納まり詳細図
  7
KANJISTD
210
0.0
220
0.0
230
1.0
 11
1.000001
 21
0.0
 31
0.0
 73
     1
 44
1.0
  0
MTEXT
  5
1BD
100
AcDbEntity
  8
LAYER_1
 62
     7
100
AcDbMText
 10
4.938889
 20
63.800363
 30
0.0
 40
2.612367
 41
0.0
 71
     1
 72
     2
  1
\W0.50;\fMS Gothic|b0|i0|c128;(数字)は、参考寸法。
  7
KANJISTD
210
0.0
220
0.0
230
1.0
 11
1.000001
 21
0.0
 31
0.0
 73
     1
 44
1.0
  0
LINE
  5
1BC
100
AcDbEntity
  8
LAYER_1
 62
     7
100
AcDbLine
 10
78.669444
 20
158.486106
 30
0.0
 11
95.569705
 21
158.486106
 31
0.0
  0
MTEXT
  5
1BB
100
AcDbEntity
  8
LAYER_1
 62
     7
100
AcDbMText
 10
95.991901
 20
186.023566
 30
0.0
 40
2.612367
 41
0.0
 71
     1
 72
     2
  1
\W0.50;\fMS Gothic|b0|i0|c128;水切り金物
  7
KANJISTD
210
0.0
220
0.0
230
1.0
 11
1.000001
 21
0.0
 31
0.0
 73
     1
 44
1.0
  0
MTEXT
  5
1BA
100
AcDbEntity
  8
LAYER_1
 62
     7
100
AcDbMText
 10
95.991901
 20
182.758477
 30
0.0
 40
2.612367
 41
0.0
 71
     1
 72
     2
  1
\W0.50;\fMS Gothic|b0|i0|c128;(上部ホルダーの機能を併設)
  7
KANJISTD
210
0.0
220
0.0
230
1.0
 11
1.000001
 21
0.0
 31
0.0
 73
     1
 44
1.0
  0
LINE
  5
1B9
100
AcDbEntity
  8
LAYER_1
 62
     7
100
AcDbLine
 10
75.935417
 20
167.638691
 30
0.0
 11
75.935417
 21
158.397222
 31
0.0
  0
POLYLINE
  5
1B2
100
AcDbEntity
  8
LAYER_1
 62
     7
100
AcDb2dPolyline
 66
     1
 10
0.0
 20
0.0
 30
0.0
  0
VERTEX
  5
1B3
100
AcDbEntity
  8
LAYER_1
 62
     7
100
AcDbVertex
100
AcDb2dVertex
 10
71.05096
 20
174.820854
 30
0.0
  0
VERTEX
  5
1B4
100
AcDbEntity
  8
LAYER_1
 62
     7
100
AcDbVertex
100
AcDb2dVertex
 10
69.149268
 20
174.820854
 30
0.0
  0
VERTEX
  5
1B5
100
AcDbEntity
  8
LAYER_1
 62
     7
100
AcDbVertex
100
AcDb2dVertex
 10
69.149268
 20
169.557609
 30
0.0
  0
VERTEX
  5
1B6
100
AcDbEntity
  8
LAYER_1
 62
     7
100
AcDbVertex
100
AcDb2dVertex
 10
79.074588
 20
166.439281
 30
0.0
  0
VERTEX
  5
1B7
100
AcDbEntity
  8
LAYER_1
 62
     7
100
AcDbVertex
100
AcDb2dVertex
 10
79.074588
 20
158.514872
 30
0.0
  0
SEQEND
  5
1B8
100
AcDbEntity
  8
LAYER_1
 62
     7
  0
POLYLINE
  5
1AC
100
AcDbEntity
  8
LAYER_1
 62
     7
100
AcDb2dPolyline
 66
     1
 10
0.0
 20
0.0
 30
0.0
 70
     1
  0
VERTEX
  5
1AD
100
AcDbEntity
  8
LAYER_1
 62
     7
100
AcDbVertex
100
AcDb2dVertex
 10
78.436556
 20
99.413398
 30
0.0
  0
VERTEX
  5
1AE
100
AcDbEntity
  8
LAYER_1
 62
     7
100
AcDbVertex
100
AcDb2dVertex
 10
78.436556
 20
161.034615
 30
0.0
  0
VERTEX
  5
1AF
100
AcDbEntity
  8
LAYER_1
 62
     7
100
AcDbVertex
100
AcDb2dVertex
 10
76.459588
 20
161.034615
 30
0.0
  0
VERTEX
  5
1B0
100
AcDbEntity
  8
LAYER_1
 62
     7
100
AcDbVertex
100
AcDb2dVertex
 10
76.459588
 20
99.413398
 30
0.0
  0
SEQEND
  5
1B1
100
AcDbEntity
  8
LAYER_1
 62
     7
  0
LINE
  5
1AB
100
AcDbEntity
  8
LAYER_1
 62
     7
100
AcDbLine
 10
45.005522
 20
61.187996
 30
0.0
 11
45.005522
 21
198.022194
 31
0.0
  0
SPLINE
  5
1AA
100
AcDbEntity
  8
LAYER_1
 62
     7
100
AcDbSpline
210
0.0
220
0.0
230
1.0
 70
     8
 71
     3
 72
    11
 73
     7
 74
     0
 42
0.00000001
 43
0.00000001
 40
0.0
 40
0.0
 40
0.0
 40
0.0
 40
1.0
 40
1.0
 40
1.0
 40
2.0
 40
2.0
 40
2.0
 40
2.0
 10
70.875604926215274
 20
175.02928195529512
 30
0.0
 10
70.811181640624994
 20
175.453717719184
 30
0.0
 10
70.797745768229163
 20
175.88452690972221
 30
0.0
 10
70.835986328124989
 20
176.31206325954861
 30
0.0
 10
70.888007269965271
 20
176.64382595486109
 30
0.0
 10
70.979819064670139
 20
176.96818169487847
 30
0.0
 10
71.109182400173609
 20
177.27824028862847
 30
0.0
  0
LINE
  5
1A9
100
AcDbEntity
  8
LAYER_1
 62
     7
100
AcDbLine
 10
70.236884
 20
175.029282
 30
0.0
 11
70.759333
 21
175.553281
 31
0.0
  0
LINE
  5
1A8
100
AcDbEntity
  8
LAYER_1
 62
     7
100
AcDbLine
 10
61.346815
 20
172.503338
 30
0.0
 11
69.466044
 21
172.503338
 31
0.0
  0
MTEXT
  5
1A7
100
AcDbEntity
  8
LAYER_1
 62
     7
100
AcDbMText
 10
70.984987
 20
209.255223
 30
0.0
 40
2.612367
 41
0.0
 71
     1
 72
     2
  1
\W0.50;\fMS Gothic|b0|i0|c128;(90)
  7
STD
210
0.0
220
0.0
230
1.0
 11
1.000001
 21
0.0
 31
0.0
 73
     1
 44
1.0
  0
POLYLINE
  5
1A2
100
AcDbEntity
  8
LAYER_1
 62
     7
100
AcDb2dPolyline
 66
     1
 10
0.0
 20
0.0
 30
0.0
  0
VERTEX
  5
1A3
100
AcDbEntity
  8
LAYER_1
 62
     7
100
AcDbVertex
100
AcDb2dVertex
 10
68.559467
 20
178.00929
 30
0.0
  0
VERTEX
  5
1A4
100
AcDbEntity
  8
LAYER_1
 62
     7
100
AcDbVertex
100
AcDb2dVertex
 10
68.559467
 20
205.973819
 30
0.0
  0
VERTEX
  5
1A5
100
AcDbEntity
  8
LAYER_1
 62
     7
100
AcDbVertex
100
AcDb2dVertex
 10
80.490005
 20
205.973819
 30
0.0
  0
SEQEND
  5
1A6
100
AcDbEntity
  8
LAYER_1
 62
     7
  0
LINE
  5
1A1
100
AcDbEntity
  8
LAYER_1
 62
     7
100
AcDbLine
 10
80.490005
 20
198.856251
 30
0.0
 11
80.490005
 21
205.973819
 31
0.0
  0
POLYLINE
  5
19C
100
AcDbEntity
  8
LAYER_1
 62
     7
100
AcDb2dPolyline
 66
     1
 10
0.0
 20
0.0
 30
0.0
  0
VERTEX
  5
19D
100
AcDbEntity
  8
LAYER_1
 62
     7
100
AcDbVertex
100
AcDb2dVertex
 10
70.471667
 20
205.461705
 30
0.0
  0
VERTEX
  5
19E
100
AcDbEntity
  8
LAYER_1
 62
     7
100
AcDbVertex
100
AcDb2dVertex
 10
68.559467
 20
205.973819
 30
0.0
  0
VERTEX
  5
19F
100
AcDbEntity
  8
LAYER_1
 62
     7
100
AcDbVertex
100
AcDb2dVertex
 10
70.471667
 20
206.485932
 30
0.0
  0
SEQEND
  5
1A0
100
AcDbEntity
  8
LAYER_1
 62
     7
  0
POLYLINE
  5
197
100
AcDbEntity
  8
LAYER_1
 62
     7
100
AcDb2dPolyline
 66
     1
 10
0.0
 20
0.0
 30
0.0
  0
VERTEX
  5
198
100
AcDbEntity
  8
LAYER_1
 62
     7
100
AcDbVertex
100
AcDb2dVertex
 10
78.577633
 20
205.461705
 30
0.0
  0
VERTEX
  5
199
100
AcDbEntity
  8
LAYER_1
 62
     7
100
AcDbVertex
100
AcDb2dVertex
 10
80.490005
 20
205.973819
 30
0.0
  0
VERTEX
  5
19A
100
AcDbEntity
  8
LAYER_1
 62
     7
100
AcDbVertex
100
AcDb2dVertex
 10
78.577633
 20
206.485932
 30
0.0
  0
SEQEND
  5
19B
100
AcDbEntity
  8
LAYER_1
 62
     7
  0
LINE
  5
196
100
AcDbEntity
  8
LAYER_1
 62
     7
100
AcDbLine
 10
95.524746
 20
161.260269
 30
0.0
 11
95.524746
 21
174.684772
 31
0.0
  0
LINE
  5
195
100
AcDbEntity
  8
LAYER_1
 62
     7
100
AcDbLine
 10
148.740275
 20
103.747673
 30
0.0
 11
153.236469
 21
103.747673
 31
0.0
  0
POLYLINE
  5
190
100
AcDbEntity
  8
LAYER_1
 62
     7
100
AcDb2dPolyline
 66
     1
 10
0.0
 20
0.0
 30
0.0
  0
VERTEX
  5
191
100
AcDbEntity
  8
LAYER_1
 62
     7
100
AcDbVertex
100
AcDb2dVertex
 10
150.652648
 20
103.235387
 30
0.0
  0
VERTEX
  5
192
100
AcDbEntity
  8
LAYER_1
 62
     7
100
AcDbVertex
100
AcDb2dVertex
 10
148.740275
 20
103.747673
 30
0.0
  0
VERTEX
  5
193
100
AcDbEntity
  8
LAYER_1
 62
     7
100
AcDbVertex
100
AcDb2dVertex
 10
150.652648
 20
104.260992
 30
0.0
  0
SEQEND
  5
194
100
AcDbEntity
  8
LAYER_1
 62
     7
  0
LINE
  5
18F
100
AcDbEntity
  8
LAYER_1
 62
     7
100
AcDbLine
 10
145.271753
 20
103.713222
 30
0.0
 11
140.775559
 21
103.713222
 31
0.0
  0
LINE
  5
18E
100
AcDbEntity
  8
LAYER_1
 62
     7
100
AcDbLine
 10
176.847087
 20
118.377271
 30
0.0
 11
179.175282
 21
118.377271
 31
0.0
  0
LINE
  5
18D
100
AcDbEntity
  8
LAYER_1
 62
     7
100
AcDbLine
 10
176.847087
 20
113.251313
 30
0.0
 11
179.175282
 21
113.251313
 31
0.0
  0
POLYLINE
  5
188
100
AcDbEntity
  8
LAYER_1
 62
     7
100
AcDb2dPolyline
 66
     1
 10
0.0
 20
0.0
 30
0.0
  0
VERTEX
  5
189
100
AcDbEntity
  8
LAYER_1
 62
     7
100
AcDbVertex
100
AcDb2dVertex
 10
176.847087
 20
85.726378
 30
0.0
  0
VERTEX
  5
18A
100
AcDbEntity
  8
LAYER_1
 62
     7
100
AcDbVertex
100
AcDb2dVertex
 10
176.847087
 20
123.809153
 30
0.0
  0
VERTEX
  5
18B
100
AcDbEntity
  8
LAYER_1
 62
     7
100
AcDbVertex
100
AcDb2dVertex
 10
179.175282
 20
123.809153
 30
0.0
  0
SEQEND
  5
18C
100
AcDbEntity
  8
LAYER_1
 62
     7
  0
SPLINE
  5
187
100
AcDbEntity
  8
LAYER_1
 62
     7
100
AcDbSpline
210
0.0
220
0.0
230
1.0
 70
     8
 71
     3
 72
    17
 73
    13
 74
     0
 42
0.00000001
 43
0.00000001
 40
0.0
 40
0.0
 40
0.0
 40
0.0
 40
1.0
 40
1.0
 40
1.0
 40
2.0
 40
2.0
 40
2.0
 40
3.0
 40
3.0
 40
3.0
 40
4.0
 40
4.0
 40
4.0
 40
4.0
 10
138.20310601128472
 20
92.148380533854152
 30
0.0
 10
138.02154947916665
 20
92.149414062499986
 30
0.0
 10
137.8744439019097
 20
92.296519639756937
 30
0.0
 10
137.87341037326388
 20
92.478076171874989
 30
0.0
 10
137.96298285590277
 20
92.697184244791657
 30
0.0
 10
138.21137424045136
 20
92.803293185763877
 30
0.0
 10
138.43151584201388
 20
92.717165798611106
 30
0.0
 10
138.49593912760415
 20
92.654120551215271
 30
0.0
 10
138.53245713975693
 20
92.567993164062486
 30
0.0
 10
138.53314615885415
 20
92.478076171874989
 30
0.0
 10
138.53176812065971
 20
92.296519639756937
 30
0.0
 10
138.38500705295138
 20
92.149414062499986
 30
0.0
 10
138.20310601128472
 20
92.148380533854152
 30
0.0
  0
SPLINE
  5
186
100
AcDbEntity
  8
LAYER_1
 62
     7
100
AcDbSpline
210
0.0
220
0.0
230
1.0
 70
     8
 71
     3
 72
    20
 73
    16
 74
     0
 42
0.00000001
 43
0.00000001
 40
0.0
 40
0.0
 40
0.0
 40
0.0
 40
1.0
 40
1.0
 40
1.0
 40
2.0
 40
2.0
 40
2.0
 40
3.0
 40
3.0
 40
3.0
 40
4.0
 40
4.0
 40
4.0
 40
5.0
 40
5.0
 40
5.0
 40
5.0
 10
146.50578613281249
 20
95.328892686631931
 30
0.0
 10
146.32422960069442
 20
95.330270724826377
 30
0.0
 10
146.1771240234375
 20
95.477031792534717
 30
0.0
 10
146.17609049479165
 20
95.65893283420138
 30
0.0
 10
146.26531846788194
 20
95.877696397569437
 30
0.0
 10
146.51405436197916
 20
95.984149848090269
 30
0.0
 10
146.73419596354165
 20
95.897677951388886
 30
0.0
 10
146.79861924913192
 20
95.834977213541663
 30
0.0
 10
146.8351372612847
 20
95.748849826388877
 30
0.0
 10
146.83582628038192
 20
95.65893283420138
 30
0.0
 10
146.83582628038192
 20
95.571427408854163
 30
0.0
 10
146.80103081597221
 20
95.487367078993046
 30
0.0
 10
146.73936360677081
 20
95.425699869791657
 30
0.0
 10
146.67735188802081
 20
95.363688151041657
 30
0.0
 10
146.59329155815971
 20
95.328892686631931
 30
0.0
 10
146.50578613281249
 20
95.328892686631931
 30
0.0
  0
SPLINE
  5
185
100
AcDbEntity
  8
LAYER_1
 62
     7
100
AcDbSpline
210
0.0
220
0.0
230
1.0
 70
     8
 71
     3
 72
    17
 73
    13
 74
     0
 42
0.00000001
 43
0.00000001
 40
0.0
 40
0.0
 40
0.0
 40
0.0
 40
1.0
 40
1.0
 40
1.0
 40
2.0
 40
2.0
 40
2.0
 40
3.0
 40
3.0
 40
3.0
 40
4.0
 40
4.0
 40
4.0
 40
4.0
 10
176.84708658854166
 20
91.248177083333331
 30
0.0
 10
176.66553005642359
 20
91.249555121527763
 30
0.0
 10
176.51842447916664
 20
91.396316189236103
 30
0.0
 10
176.51704644097219
 20
91.578217230902766
 30
0.0
 10
176.60627441406248
 20
91.796636284722211
 30
0.0
 10
176.85466579861111
 20
91.903089735243043
 30
0.0
 10
177.07411838107637
 20
91.816962348090271
 30
0.0
 10
177.13854166666664
 20
91.753917100694437
 30
0.0
 10
177.17505967881942
 20
91.668134223090263
 30
0.0
 10
177.17574869791665
 20
91.578217230902766
 30
0.0
 10
177.17505967881942
 20
91.396660698784714
 30
0.0
 10
177.02864312065969
 20
91.249899631076374
 30
0.0
 10
176.84708658854166
 20
91.248177083333331
 30
0.0
  0
SPLINE
  5
184
100
AcDbEntity
  8
LAYER_1
 62
     7
100
AcDbSpline
210
0.0
220
0.0
230
1.0
 70
     8
 71
     3
 72
    17
 73
    13
 74
     0
 42
0.00000001
 43
0.00000001
 40
0.0
 40
0.0
 40
0.0
 40
0.0
 40
1.0
 40
1.0
 40
1.0
 40
2.0
 40
2.0
 40
2.0
 40
3.0
 40
3.0
 40
3.0
 40
4.0
 40
4.0
 40
4.0
 40
4.0
 10
176.84708658854166
 20
86.824329969618049
 30
0.0
 10
176.66553005642359
 20
86.825708007812494
 30
0.0
 10
176.51842447916664
 20
86.97246907552082
 30
0.0
 10
176.51704644097219
 20
87.154370117187497
 30
0.0
 10
176.60627441406248
 20
87.372789171006943
 30
0.0
 10
176.85466579861111
 20
87.479242621527774
 30
0.0
 10
177.07411838107637
 20
87.393115234374989
 30
0.0
 10
177.13854166666664
 20
87.330414496527766
 30
0.0
 10
177.17505967881942
 20
87.244287109374994
 30
0.0
 10
177.17574869791665
 20
87.154370117187497
 30
0.0
 10
177.17505967881942
 20
86.972813585069431
 30
0.0
 10
177.02864312065969
 20
86.826052517361106
 30
0.0
 10
176.84708658854166
 20
86.824329969618049
 30
0.0
  0
SPLINE
  5
183
100
AcDbEntity
  8
LAYER_1
 62
     7
100
AcDbSpline
210
0.0
220
0.0
230
1.0
 70
     8
 71
     3
 72
    17
 73
    13
 74
     0
 42
0.00000001
 43
0.00000001
 40
0.0
 40
0.0
 40
0.0
 40
0.0
 40
1.0
 40
1.0
 40
1.0
 40
2.0
 40
2.0
 40
2.0
 40
3.0
 40
3.0
 40
3.0
 40
4.0
 40
4.0
 40
4.0
 40
4.0
 10
176.84708658854166
 20
85.396337890624991
 30
0.0
 10
176.66553005642359
 20
85.397715928819437
 30
0.0
 10
176.51842447916664
 20
85.544476996527763
 30
0.0
 10
176.51704644097219
 20
85.72637803819444
 30
0.0
 10
176.60627441406248
 20
85.944797092013886
 30
0.0
 10
176.85466579861111
 20
86.051250542534717
 30
0.0
 10
177.07411838107637
 20
85.965123155381931
 30
0.0
 10
177.13854166666664
 20
85.902422417534709
 30
0.0
 10
177.17505967881942
 20
85.816295030381937
 30
0.0
 10
177.17574869791665
 20
85.72637803819444
 30
0.0
 10
177.17505967881942
 20
85.544821506076374
 30
0.0
 10
177.02864312065969
 20
85.398060438368049
 30
0.0
 10
176.84708658854166
 20
85.396337890624991
 30
0.0
  0
POLYLINE
  5
17E
100
AcDbEntity
  8
LAYER_1
 62
     7
100
AcDb2dPolyline
 66
     1
 10
0.0
 20
0.0
 30
0.0
  0
VERTEX
  5
17F
100
AcDbEntity
  8
LAYER_1
 62
     7
100
AcDbVertex
100
AcDb2dVertex
 10
79.962906
 20
166.834606
 30
0.0
  0
VERTEX
  5
180
100
AcDbEntity
  8
LAYER_1
 62
     7
100
AcDbVertex
100
AcDb2dVertex
 10
94.513611
 20
184.716201
 30
0.0
  0
VERTEX
  5
181
100
AcDbEntity
  8
LAYER_1
 62
     7
100
AcDbVertex
100
AcDb2dVertex
 10
95.705442
 20
184.628007
 30
0.0
  0
SEQEND
  5
182
100
AcDbEntity
  8
LAYER_1
 62
     7
  0
SPLINE
  5
17D
100
AcDbEntity
  8
LAYER_1
 62
     7
100
AcDbSpline
210
0.0
220
0.0
230
1.0
 70
     8
 71
     3
 72
    17
 73
    13
 74
     0
 42
0.00000001
 43
0.00000001
 40
0.0
 40
0.0
 40
0.0
 40
0.0
 40
1.0
 40
1.0
 40
1.0
 40
2.0
 40
2.0
 40
2.0
 40
3.0
 40
3.0
 40
3.0
 40
4.0
 40
4.0
 40
4.0
 40
4.0
 10
80.053683810763886
 20
166.41206461588541
 30
0.0
 10
80.129992675781239
 20
166.48096652560761
 30
0.0
 10
80.17391764322916
 20
166.57863498263887
 30
0.0
 10
80.174951171874994
 20
166.68147108289929
 30
0.0
 10
80.173573133680549
 20
166.87904730902775
 30
0.0
 10
80.013720703124989
 20
167.03889973958331
 30
0.0
 10
79.815972222222214
 20
167.04027777777776
 30
0.0
 10
79.618051486545127
 20
167.03924424913194
 30
0.0
 10
79.457510036892359
 20
166.87939181857638
 30
0.0
 10
79.455615234374989
 20
166.68147108289929
 30
0.0
 10
79.547943793402766
 20
166.44324273003471
 30
0.0
 10
79.814249674479157
 20
166.32335340711805
 30
0.0
 10
80.053683810763886
 20
166.41206461588541
 30
0.0
  0
POLYLINE
  5
178
100
AcDbEntity
  8
LAYER_1
 62
     7
100
AcDb2dPolyline
 66
     1
 10
0.0
 20
0.0
 30
0.0
  0
VERTEX
  5
179
100
AcDbEntity
  8
LAYER_1
 62
     7
100
AcDbVertex
100
AcDb2dVertex
 10
70.927109
 20
160.096171
 30
0.0
  0
VERTEX
  5
17A
100
AcDbEntity
  8
LAYER_1
 62
     7
100
AcDbVertex
100
AcDb2dVertex
 10
66.379066
 20
168.111186
 30
0.0
  0
VERTEX
  5
17B
100
AcDbEntity
  8
LAYER_1
 62
     7
100
AcDbVertex
100
AcDb2dVertex
 10
64.127524
 20
168.111186
 30
0.0
  0
SEQEND
  5
17C
100
AcDbEntity
  8
LAYER_1
 62
     7
  0
POLYLINE
  5
173
100
AcDbEntity
  8
LAYER_1
 62
     7
100
AcDb2dPolyline
 66
     1
 10
0.0
 20
0.0
 30
0.0
  0
VERTEX
  5
174
100
AcDbEntity
  8
LAYER_1
 62
     7
100
AcDbVertex
100
AcDb2dVertex
 10
69.539941
 20
176.205265
 30
0.0
  0
VERTEX
  5
175
100
AcDbEntity
  8
LAYER_1
 62
     7
100
AcDbVertex
100
AcDb2dVertex
 10
59.947934
 20
193.000623
 30
0.0
  0
VERTEX
  5
176
100
AcDbEntity
  8
LAYER_1
 62
     7
100
AcDbVertex
100
AcDb2dVertex
 10
53.622222
 20
193.000623
 30
0.0
  0
SEQEND
  5
177
100
AcDbEntity
  8
LAYER_1
 62
     7
  0
SPLINE
  5
172
100
AcDbEntity
  8
LAYER_1
 62
     7
100
AcDbSpline
210
0.0
220
0.0
230
1.0
 70
     8
 71
     3
 72
    17
 73
    13
 74
     0
 42
0.00000001
 43
0.00000001
 40
0.0
 40
0.0
 40
0.0
 40
0.0
 40
1.0
 40
1.0
 40
1.0
 40
2.0
 40
2.0
 40
2.0
 40
3.0
 40
3.0
 40
3.0
 40
4.0
 40
4.0
 40
4.0
 40
4.0
 10
69.587483723958329
 20
175.83043891059026
 30
0.0
 10
69.389735243055554
 20
175.83181694878471
 30
0.0
 10
69.229882812499994
 20
175.99166937934027
 30
0.0
 10
69.228504774305549
 20
176.18941786024303
 30
0.0
 10
69.320661078559027
 20
176.42747395833331
 30
0.0
 10
69.586966959635404
 20
176.54736328124997
 30
0.0
 10
69.826401095920133
 20
176.45865207248264
 30
0.0
 10
69.9027099609375
 20
176.38975016276041
 30
0.0
 10
69.94680718315972
 20
176.29208170572915
 30
0.0
 10
69.947840711805554
 20
176.18941786024303
 30
0.0
 10
69.945945909288184
 20
175.99132486979164
 30
0.0
 10
69.785404459635416
 20
175.83147243923611
 30
0.0
 10
69.587483723958329
 20
175.83043891059026
 30
0.0
  0
POLYLINE
  5
16D
100
AcDbEntity
  8
LAYER_1
 62
     7
100
AcDb2dPolyline
 66
     1
 10
0.0
 20
0.0
 30
0.0
  0
VERTEX
  5
16E
100
AcDbEntity
  8
LAYER_1
 62
     7
100
AcDbVertex
100
AcDb2dVertex
 10
69.569052
 20
165.380603
 30
0.0
  0
VERTEX
  5
16F
100
AcDbEntity
  8
LAYER_1
 62
     7
100
AcDbVertex
100
AcDb2dVertex
 10
59.103369
 20
183.804457
 30
0.0
  0
VERTEX
  5
170
100
AcDbEntity
  8
LAYER_1
 62
     7
100
AcDbVertex
100
AcDb2dVertex
 10
56.853033
 20
183.804457
 30
0.0
  0
SEQEND
  5
171
100
AcDbEntity
  8
LAYER_1
 62
     7
  0
SPLINE
  5
16C
100
AcDbEntity
  8
LAYER_1
 62
     7
100
AcDbSpline
210
0.0
220
0.0
230
1.0
 70
     8
 71
     3
 72
    17
 73
    13
 74
     0
 42
0.00000001
 43
0.00000001
 40
0.0
 40
0.0
 40
0.0
 40
0.0
 40
1.0
 40
1.0
 40
1.0
 40
2.0
 40
2.0
 40
2.0
 40
3.0
 40
3.0
 40
3.0
 40
4.0
 40
4.0
 40
4.0
 40
4.0
 10
69.617800564236106
 20
165.0043986002604
 30
0.0
 10
69.419363064236109
 20
165.00577663845485
 30
0.0
 10
69.258993869357639
 20
165.16631808810763
 30
0.0
 10
69.257615831163193
 20
165.36475558810761
 30
0.0
 10
69.349772135416657
 20
165.6028116861979
 30
0.0
 10
69.616078016493049
 20
165.72270100911456
 30
0.0
 10
69.855339898003464
 20
165.63398980034719
 30
0.0
 10
69.931648763020831
 20
165.56508789062499
 30
0.0
 10
69.975745985243051
 20
165.46759168836803
 30
0.0
 10
69.976779513888886
 20
165.36475558810761
 30
0.0
 10
69.975745985243051
 20
165.16666259765623
 30
0.0
 10
69.815721299913193
 20
165.00612114800344
 30
0.0
 10
69.617800564236106
 20
165.0043986002604
 30
0.0
  0
POLYLINE
  5
167
100
AcDbEntity
  8
LAYER_1
 62
     7
100
AcDb2dPolyline
 66
     1
 10
0.0
 20
0.0
 30
0.0
  0
VERTEX
  5
168
100
AcDbEntity
  8
LAYER_1
 62
     7
100
AcDbVertex
100
AcDb2dVertex
 10
75.154241
 20
200.318522
 30
0.0
  0
VERTEX
  5
169
100
AcDbEntity
  8
LAYER_1
 62
     7
100
AcDbVertex
100
AcDb2dVertex
 10
80.364604
 20
209.708819
 30
0.0
  0
VERTEX
  5
16A
100
AcDbEntity
  8
LAYER_1
 62
     7
100
AcDbVertex
100
AcDb2dVertex
 10
82.614768
 20
209.708819
 30
0.0
  0
SEQEND
  5
16B
100
AcDbEntity
  8
LAYER_1
 62
     7
  0
SPLINE
  5
166
100
AcDbEntity
  8
LAYER_1
 62
     7
100
AcDbSpline
210
0.0
220
0.0
230
1.0
 70
     8
 71
     3
 72
    17
 73
    13
 74
     0
 42
0.00000001
 43
0.00000001
 40
0.0
 40
0.0
 40
0.0
 40
0.0
 40
1.0
 40
1.0
 40
1.0
 40
2.0
 40
2.0
 40
2.0
 40
3.0
 40
3.0
 40
3.0
 40
4.0
 40
4.0
 40
4.0
 40
4.0
 10
75.345616319444431
 20
200.03361273871525
 30
0.0
 10
75.421580674913187
 20
200.10251464843748
 30
0.0
 10
75.465161132812497
 20
200.20018310546874
 30
0.0
 10
75.465677897135407
 20
200.30284695095483
 30
0.0
 10
75.464644368489573
 20
200.50076768663192
 30
0.0
 10
75.304619683159714
 20
200.6613091362847
 30
0.0
 10
75.106698947482627
 20
200.66303168402777
 30
0.0
 10
74.90826144748263
 20
200.66165364583333
 30
0.0
 10
74.747719997829847
 20
200.50111219618054
 30
0.0
 10
74.746514214409714
 20
200.30284695095483
 30
0.0
 10
74.839015028211804
 20
200.06427408854165
 30
0.0
 10
75.105837673611106
 20
199.94438476562499
 30
0.0
 10
75.345616319444431
 20
200.03361273871525
 30
0.0
  0
POLYLINE
  5
161
100
AcDbEntity
  8
LAYER_1
 62
     7
100
AcDb2dPolyline
 66
     1
 10
0.0
 20
0.0
 30
0.0
  0
VERTEX
  5
162
100
AcDbEntity
  8
LAYER_1
 62
     7
100
AcDbVertex
100
AcDb2dVertex
 10
77.346528
 20
126.559028
 30
0.0
  0
VERTEX
  5
163
100
AcDbEntity
  8
LAYER_1
 62
     7
100
AcDbVertex
100
AcDb2dVertex
 10
93.418415
 20
147.604772
 30
0.0
  0
VERTEX
  5
164
100
AcDbEntity
  8
LAYER_1
 62
     7
100
AcDbVertex
100
AcDb2dVertex
 10
95.668579
 20
147.604772
 30
0.0
  0
SEQEND
  5
165
100
AcDbEntity
  8
LAYER_1
 62
     7
  0
SPLINE
  5
160
100
AcDbEntity
  8
LAYER_1
 62
     7
100
AcDbSpline
210
0.0
220
0.0
230
1.0
 70
     8
 71
     3
 72
    17
 73
    13
 74
     0
 42
0.00000001
 43
0.00000001
 40
0.0
 40
0.0
 40
0.0
 40
0.0
 40
1.0
 40
1.0
 40
1.0
 40
2.0
 40
2.0
 40
2.0
 40
3.0
 40
3.0
 40
3.0
 40
4.0
 40
4.0
 40
4.0
 40
4.0
 10
77.532735188802079
 20
126.10393066406249
 30
0.0
 10
77.609216308593744
 20
126.17283257378472
 30
0.0
 10
77.653141276041666
 20
126.27067328559026
 30
0.0
 10
77.6541748046875
 20
126.37333713107638
 30
0.0
 10
77.652796766493054
 20
126.57177463107638
 30
0.0
 10
77.492255316840271
 20
126.73231608072915
 30
0.0
 10
77.293817816840274
 20
126.73369411892359
 30
0.0
 10
77.095897081163187
 20
126.73162706163194
 30
0.0
 10
76.936044650607627
 20
126.57143012152777
 30
0.0
 10
76.934838867187494
 20
126.37333713107638
 30
0.0
 10
77.026995171440959
 20
126.1352810329861
 30
0.0
 10
77.29330105251735
 20
126.01539171006944
 30
0.0
 10
77.532735188802079
 20
126.10393066406249
 30
0.0
  0
POLYLINE
  5
15B
100
AcDbEntity
  8
LAYER_1
 62
     7
100
AcDb2dPolyline
 66
     1
 10
0.0
 20
0.0
 30
0.0
  0
VERTEX
  5
15C
100
AcDbEntity
  8
LAYER_1
 62
     7
100
AcDbVertex
100
AcDb2dVertex
 10
71.857457
 20
97.627805
 30
0.0
  0
VERTEX
  5
15D
100
AcDbEntity
  8
LAYER_1
 62
     7
100
AcDbVertex
100
AcDb2dVertex
 10
90.547961
 20
130.087495
 30
0.0
  0
VERTEX
  5
15E
100
AcDbEntity
  8
LAYER_1
 62
     7
100
AcDbVertex
100
AcDb2dVertex
 10
92.799504
 20
130.087495
 30
0.0
  0
SEQEND
  5
15F
100
AcDbEntity
  8
LAYER_1
 62
     7
  0
POLYLINE
  5
156
100
AcDbEntity
  8
LAYER_1
 62
     7
100
AcDb2dPolyline
 66
     1
 10
0.0
 20
0.0
 30
0.0
  0
VERTEX
  5
157
100
AcDbEntity
  8
LAYER_1
 62
     7
100
AcDbVertex
100
AcDb2dVertex
 10
77.897226
 20
95.894922
 30
0.0
  0
VERTEX
  5
158
100
AcDbEntity
  8
LAYER_1
 62
     7
100
AcDbVertex
100
AcDb2dVertex
 10
90.57156
 20
112.761765
 30
0.0
  0
VERTEX
  5
159
100
AcDbEntity
  8
LAYER_1
 62
     7
100
AcDbVertex
100
AcDb2dVertex
 10
92.823102
 20
112.761765
 30
0.0
  0
SEQEND
  5
15A
100
AcDbEntity
  8
LAYER_1
 62
     7
  0
POLYLINE
  5
151
100
AcDbEntity
  8
LAYER_1
 62
     7
100
AcDb2dPolyline
 66
     1
 10
0.0
 20
0.0
 30
0.0
  0
VERTEX
  5
152
100
AcDbEntity
  8
LAYER_1
 62
     7
100
AcDbVertex
100
AcDb2dVertex
 10
79.815972
 20
101.688194
 30
0.0
  0
VERTEX
  5
153
100
AcDbEntity
  8
LAYER_1
 62
     7
100
AcDbVertex
100
AcDb2dVertex
 10
93.597904
 20
120.007145
 30
0.0
  0
VERTEX
  5
154
100
AcDbEntity
  8
LAYER_1
 62
     7
100
AcDbVertex
100
AcDb2dVertex
 10
95.849447
 20
120.007145
 30
0.0
  0
SEQEND
  5
155
100
AcDbEntity
  8
LAYER_1
 62
     7
  0
LINE
  5
150
100
AcDbEntity
  8
LAYER_1
 62
     7
100
AcDbLine
 10
77.447986
 20
78.9044
 30
0.0
 11
81.409846
 21
78.9044
 31
0.0
  0
POLYLINE
  5
14B
100
AcDbEntity
  8
LAYER_1
 62
     7
100
AcDb2dPolyline
 66
     1
 10
0.0
 20
0.0
 30
0.0
  0
VERTEX
  5
14C
100
AcDbEntity
  8
LAYER_1
 62
     7
100
AcDbVertex
100
AcDb2dVertex
 10
122.016325
 20
95.416054
 30
0.0
  0
VERTEX
  5
14D
100
AcDbEntity
  8
LAYER_1
 62
     7
100
AcDbVertex
100
AcDb2dVertex
 10
122.528266
 20
97.327048
 30
0.0
  0
VERTEX
  5
14E
100
AcDbEntity
  8
LAYER_1
 62
     7
100
AcDbVertex
100
AcDb2dVertex
 10
123.040552
 20
95.416054
 30
0.0
  0
SEQEND
  5
14F
100
AcDbEntity
  8
LAYER_1
 62
     7
  0
POLYLINE
  5
146
100
AcDbEntity
  8
LAYER_1
 62
     7
100
AcDb2dPolyline
 66
     1
 10
0.0
 20
0.0
 30
0.0
  0
VERTEX
  5
147
100
AcDbEntity
  8
LAYER_1
 62
     7
100
AcDbVertex
100
AcDb2dVertex
 10
122.020114
 20
88.658843
 30
0.0
  0
VERTEX
  5
148
100
AcDbEntity
  8
LAYER_1
 62
     7
100
AcDbVertex
100
AcDb2dVertex
 10
122.5324
 20
86.747849
 30
0.0
  0
VERTEX
  5
149
100
AcDbEntity
  8
LAYER_1
 62
     7
100
AcDbVertex
100
AcDb2dVertex
 10
123.044341
 20
88.658843
 30
0.0
  0
SEQEND
  5
14A
100
AcDbEntity
  8
LAYER_1
 62
     7
  0
POLYLINE
  5
141
100
AcDbEntity
  8
LAYER_1
 62
     7
100
AcDb2dPolyline
 66
     1
 10
0.0
 20
0.0
 30
0.0
  0
VERTEX
  5
142
100
AcDbEntity
  8
LAYER_1
 62
     7
100
AcDbVertex
100
AcDb2dVertex
 10
88.308305
 20
91.827642
 30
0.0
  0
VERTEX
  5
143
100
AcDbEntity
  8
LAYER_1
 62
     7
100
AcDbVertex
100
AcDb2dVertex
 10
88.820246
 20
93.73967
 30
0.0
  0
VERTEX
  5
144
100
AcDbEntity
  8
LAYER_1
 62
     7
100
AcDbVertex
100
AcDb2dVertex
 10
89.332359
 20
91.827642
 30
0.0
  0
SEQEND
  5
145
100
AcDbEntity
  8
LAYER_1
 62
     7
  0
POLYLINE
  5
13C
100
AcDbEntity
  8
LAYER_1
 62
     7
100
AcDb2dPolyline
 66
     1
 10
0.0
 20
0.0
 30
0.0
  0
VERTEX
  5
13D
100
AcDbEntity
  8
LAYER_1
 62
     7
100
AcDbVertex
100
AcDb2dVertex
 10
88.309683
 20
99.511239
 30
0.0
  0
VERTEX
  5
13E
100
AcDbEntity
  8
LAYER_1
 62
     7
100
AcDbVertex
100
AcDb2dVertex
 10
88.823002
 20
97.598866
 30
0.0
  0
VERTEX
  5
13F
100
AcDbEntity
  8
LAYER_1
 62
     7
100
AcDbVertex
100
AcDb2dVertex
 10
89.335116
 20
99.511239
 30
0.0
  0
SEQEND
  5
140
100
AcDbEntity
  8
LAYER_1
 62
     7
  0
POLYLINE
  5
137
100
AcDbEntity
  8
LAYER_1
 62
     7
100
AcDb2dPolyline
 66
     1
 10
0.0
 20
0.0
 30
0.0
  0
VERTEX
  5
138
100
AcDbEntity
  8
LAYER_1
 62
     7
100
AcDbVertex
100
AcDb2dVertex
 10
72.23125
 20
70.269268
 30
0.0
  0
VERTEX
  5
139
100
AcDbEntity
  8
LAYER_1
 62
     7
100
AcDbVertex
100
AcDb2dVertex
 10
70.318705
 20
70.781209
 30
0.0
  0
VERTEX
  5
13A
100
AcDbEntity
  8
LAYER_1
 62
     7
100
AcDbVertex
100
AcDb2dVertex
 10
72.23125
 20
71.293495
 30
0.0
  0
SEQEND
  5
13B
100
AcDbEntity
  8
LAYER_1
 62
     7
  0
POLYLINE
  5
132
100
AcDbEntity
  8
LAYER_1
 62
     7
100
AcDb2dPolyline
 66
     1
 10
0.0
 20
0.0
 30
0.0
  0
VERTEX
  5
133
100
AcDbEntity
  8
LAYER_1
 62
     7
100
AcDbVertex
100
AcDb2dVertex
 10
46.726519
 20
147.699512
 30
0.0
  0
VERTEX
  5
134
100
AcDbEntity
  8
LAYER_1
 62
     7
100
AcDbVertex
100
AcDb2dVertex
 10
44.814147
 20
148.211797
 30
0.0
  0
VERTEX
  5
135
100
AcDbEntity
  8
LAYER_1
 62
     7
100
AcDbVertex
100
AcDb2dVertex
 10
46.726519
 20
148.725117
 30
0.0
  0
SEQEND
  5
136
100
AcDbEntity
  8
LAYER_1
 62
     7
  0
POLYLINE
  5
12D
100
AcDbEntity
  8
LAYER_1
 62
     7
100
AcDb2dPolyline
 66
     1
 10
0.0
 20
0.0
 30
0.0
  0
VERTEX
  5
12E
100
AcDbEntity
  8
LAYER_1
 62
     7
100
AcDbVertex
100
AcDb2dVertex
 10
39.99308
 20
147.684009
 30
0.0
  0
VERTEX
  5
12F
100
AcDbEntity
  8
LAYER_1
 62
     7
100
AcDbVertex
100
AcDb2dVertex
 10
41.905452
 20
148.197156
 30
0.0
  0
VERTEX
  5
130
100
AcDbEntity
  8
LAYER_1
 62
     7
100
AcDbVertex
100
AcDb2dVertex
 10
39.99308
 20
148.709269
 30
0.0
  0
SEQEND
  5
131
100
AcDbEntity
  8
LAYER_1
 62
     7
  0
POLYLINE
  5
128
100
AcDbEntity
  8
LAYER_1
 62
     7
100
AcDb2dPolyline
 66
     1
 10
0.0
 20
0.0
 30
0.0
  0
VERTEX
  5
129
100
AcDbEntity
  8
LAYER_1
 62
     7
100
AcDbVertex
100
AcDb2dVertex
 10
66.50309
 20
147.756356
 30
0.0
  0
VERTEX
  5
12A
100
AcDbEntity
  8
LAYER_1
 62
     7
100
AcDbVertex
100
AcDb2dVertex
 10
68.415462
 20
148.268469
 30
0.0
  0
VERTEX
  5
12B
100
AcDbEntity
  8
LAYER_1
 62
     7
100
AcDbVertex
100
AcDb2dVertex
 10
66.50309
 20
148.780583
 30
0.0
  0
SEQEND
  5
12C
100
AcDbEntity
  8
LAYER_1
 62
     7
  0
POLYLINE
  5
123
100
AcDbEntity
  8
LAYER_1
 62
     7
100
AcDb2dPolyline
 66
     1
 10
0.0
 20
0.0
 30
0.0
  0
VERTEX
  5
124
100
AcDbEntity
  8
LAYER_1
 62
     7
100
AcDbVertex
100
AcDb2dVertex
 10
79.360358
 20
78.391081
 30
0.0
  0
VERTEX
  5
125
100
AcDbEntity
  8
LAYER_1
 62
     7
100
AcDbVertex
100
AcDb2dVertex
 10
77.447986
 20
78.9044
 30
0.0
  0
VERTEX
  5
126
100
AcDbEntity
  8
LAYER_1
 62
     7
100
AcDbVertex
100
AcDb2dVertex
 10
79.360358
 20
79.416341
 30
0.0
  0
SEQEND
  5
127
100
AcDbEntity
  8
LAYER_1
 62
     7
  0
LINE
  5
122
100
AcDbEntity
  8
LAYER_1
 62
     7
100
AcDbLine
 10
70.48028
 20
78.9044
 30
0.0
 11
66.517042
 21
78.9044
 31
0.0
  0
LINE
  5
121
100
AcDbEntity
  8
LAYER_1
 62
     7
100
AcDbLine
 10
88.812322
 20
95.962446
 30
0.0
 11
88.812322
 21
89.0757
 31
0.0
  0
POLYLINE
  5
11C
100
AcDbEntity
  8
LAYER_1
 62
     7
100
AcDb2dPolyline
 66
     1
 10
0.0
 20
0.0
 30
0.0
  0
VERTEX
  5
11D
100
AcDbEntity
  8
LAYER_1
 62
     7
100
AcDbVertex
100
AcDb2dVertex
 10
87.190544
 20
197.506118
 30
0.0
  0
VERTEX
  5
11E
100
AcDbEntity
  8
LAYER_1
 62
     7
100
AcDbVertex
100
AcDb2dVertex
 10
86.67843
 20
199.418491
 30
0.0
  0
VERTEX
  5
11F
100
AcDbEntity
  8
LAYER_1
 62
     7
100
AcDbVertex
100
AcDb2dVertex
 10
86.166317
 20
197.506118
 30
0.0
  0
SEQEND
  5
120
100
AcDbEntity
  8
LAYER_1
 62
     7
  0
POLYLINE
  5
117
100
AcDbEntity
  8
LAYER_1
 62
     7
100
AcDb2dPolyline
 66
     1
 10
0.0
 20
0.0
 30
0.0
  0
VERTEX
  5
118
100
AcDbEntity
  8
LAYER_1
 62
     7
100
AcDbVertex
100
AcDb2dVertex
 10
86.166317
 20
178.857989
 30
0.0
  0
VERTEX
  5
119
100
AcDbEntity
  8
LAYER_1
 62
     7
100
AcDbVertex
100
AcDb2dVertex
 10
86.67843
 20
176.945616
 30
0.0
  0
VERTEX
  5
11A
100
AcDbEntity
  8
LAYER_1
 62
     7
100
AcDbVertex
100
AcDb2dVertex
 10
87.190544
 20
178.857989
 30
0.0
  0
SEQEND
  5
11B
100
AcDbEntity
  8
LAYER_1
 62
     7
  0
POLYLINE
  5
112
100
AcDbEntity
  8
LAYER_1
 62
     7
100
AcDb2dPolyline
 66
     1
 10
0.0
 20
0.0
 30
0.0
  0
VERTEX
  5
113
100
AcDbEntity
  8
LAYER_1
 62
     7
100
AcDbVertex
100
AcDb2dVertex
 10
86.088458
 20
205.114612
 30
0.0
  0
VERTEX
  5
114
100
AcDbEntity
  8
LAYER_1
 62
     7
100
AcDbVertex
100
AcDb2dVertex
 10
86.600571
 20
203.202239
 30
0.0
  0
VERTEX
  5
115
100
AcDbEntity
  8
LAYER_1
 62
     7
100
AcDbVertex
100
AcDb2dVertex
 10
87.11389
 20
205.114612
 30
0.0
  0
SEQEND
  5
116
100
AcDbEntity
  8
LAYER_1
 62
     7
  0
POLYLINE
  5
10D
100
AcDbEntity
  8
LAYER_1
 62
     7
100
AcDb2dPolyline
 66
     1
 10
0.0
 20
0.0
 30
0.0
  0
VERTEX
  5
10E
100
AcDbEntity
  8
LAYER_1
 62
     7
100
AcDbVertex
100
AcDb2dVertex
 10
96.088364
 20
156.759768
 30
0.0
  0
VERTEX
  5
10F
100
AcDbEntity
  8
LAYER_1
 62
     7
100
AcDbVertex
100
AcDb2dVertex
 10
95.576251
 20
158.672141
 30
0.0
  0
VERTEX
  5
110
100
AcDbEntity
  8
LAYER_1
 62
     7
100
AcDbVertex
100
AcDb2dVertex
 10
95.062931
 20
156.759768
 30
0.0
  0
SEQEND
  5
111
100
AcDbEntity
  8
LAYER_1
 62
     7
  0
POLYLINE
  5
108
100
AcDbEntity
  8
LAYER_1
 62
     7
100
AcDb2dPolyline
 66
     1
 10
0.0
 20
0.0
 30
0.0
  0
VERTEX
  5
109
100
AcDbEntity
  8
LAYER_1
 62
     7
100
AcDbVertex
100
AcDb2dVertex
 10
95.031064
 20
162.997114
 30
0.0
  0
VERTEX
  5
10A
100
AcDbEntity
  8
LAYER_1
 62
     7
100
AcDbVertex
100
AcDb2dVertex
 10
95.543178
 20
161.084741
 30
0.0
  0
VERTEX
  5
10B
100
AcDbEntity
  8
LAYER_1
 62
     7
100
AcDbVertex
100
AcDb2dVertex
 10
96.055291
 20
162.997114
 30
0.0
  0
SEQEND
  5
10C
100
AcDbEntity
  8
LAYER_1
 62
     7
  0
LINE
  5
107
100
AcDbEntity
  8
LAYER_1
 62
     7
100
AcDbLine
 10
95.569705
 20
161.163978
 30
0.0
 11
95.569705
 21
153.507943
 31
0.0
  0
LINE
  5
106
100
AcDbEntity
  8
LAYER_1
 62
     7
100
AcDbLine
 10
78.669444
 20
161.058386
 30
0.0
 11
162.258485
 21
161.058386
 31
0.0
  0
POLYLINE
  5
101
100
AcDbEntity
  8
LAYER_1
 62
     7
100
AcDb2dPolyline
 66
     1
 10
0.0
 20
0.0
 30
0.0
  0
VERTEX
  5
102
100
AcDbEntity
  8
LAYER_1
 62
     7
100
AcDbVertex
100
AcDb2dVertex
 10
162.886871
 20
159.251606
 30
0.0
  0
VERTEX
  5
103
100
AcDbEntity
  8
LAYER_1
 62
     7
100
AcDbVertex
100
AcDb2dVertex
 10
162.374585
 20
161.163978
 30
0.0
  0
VERTEX
  5
104
100
AcDbEntity
  8
LAYER_1
 62
     7
100
AcDbVertex
100
AcDb2dVertex
 10
161.862644
 20
159.251606
 30
0.0
  0
SEQEND
  5
105
100
AcDbEntity
  8
LAYER_1
 62
     7
  0
POLYLINE
  5
FC
100
AcDbEntity
  8
LAYER_1
 62
     7
100
AcDb2dPolyline
 66
     1
 10
0.0
 20
0.0
 30
0.0
  0
VERTEX
  5
FD
100
AcDbEntity
  8
LAYER_1
 62
     7
100
AcDbVertex
100
AcDb2dVertex
 10
145.118791
 20
70.269268
 30
0.0
  0
VERTEX
  5
FE
100
AcDbEntity
  8
LAYER_1
 62
     7
100
AcDbVertex
100
AcDb2dVertex
 10
147.029785
 20
70.781209
 30
0.0
  0
VERTEX
  5
FF
100
AcDbEntity
  8
LAYER_1
 62
     7
100
AcDbVertex
100
AcDb2dVertex
 10
145.118791
 20
71.293495
 30
0.0
  0
SEQEND
  5
100
100
AcDbEntity
  8
LAYER_1
 62
     7
  0
POLYLINE
  5
F7
100
AcDbEntity
  8
LAYER_1
 62
     7
100
AcDb2dPolyline
 66
     1
 10
0.0
 20
0.0
 30
0.0
  0
VERTEX
  5
F8
100
AcDbEntity
  8
LAYER_1
 62
     7
100
AcDbVertex
100
AcDb2dVertex
 10
68.567908
 20
78.391081
 30
0.0
  0
VERTEX
  5
F9
100
AcDbEntity
  8
LAYER_1
 62
     7
100
AcDbVertex
100
AcDb2dVertex
 10
70.48028
 20
78.9044
 30
0.0
  0
VERTEX
  5
FA
100
AcDbEntity
  8
LAYER_1
 62
     7
100
AcDbVertex
100
AcDb2dVertex
 10
68.567908
 20
79.416341
 30
0.0
  0
SEQEND
  5
FB
100
AcDbEntity
  8
LAYER_1
 62
     7
  0
POLYLINE
  5
F2
100
AcDbEntity
  8
LAYER_1
 62
     7
100
AcDb2dPolyline
 66
     1
 10
0.0
 20
0.0
 30
0.0
  0
VERTEX
  5
F3
100
AcDbEntity
  8
LAYER_1
 62
     7
100
AcDbVertex
100
AcDb2dVertex
 10
161.862644
 20
99.503315
 30
0.0
  0
VERTEX
  5
F4
100
AcDbEntity
  8
LAYER_1
 62
     7
100
AcDbVertex
100
AcDb2dVertex
 10
162.374585
 20
97.590942
 30
0.0
  0
VERTEX
  5
F5
100
AcDbEntity
  8
LAYER_1
 62
     7
100
AcDbVertex
100
AcDb2dVertex
 10
162.886871
 20
99.503315
 30
0.0
  0
SEQEND
  5
F6
100
AcDbEntity
  8
LAYER_1
 62
     7
  0
POLYLINE
  5
ED
100
AcDbEntity
  8
LAYER_1
 62
     7
100
AcDb2dPolyline
 66
     1
 10
0.0
 20
0.0
 30
0.0
  0
VERTEX
  5
EE
100
AcDbEntity
  8
LAYER_1
 62
     7
100
AcDbVertex
100
AcDb2dVertex
 10
143.359725
 20
103.20128
 30
0.0
  0
VERTEX
  5
EF
100
AcDbEntity
  8
LAYER_1
 62
     7
100
AcDbVertex
100
AcDb2dVertex
 10
145.271753
 20
103.713222
 30
0.0
  0
VERTEX
  5
F0
100
AcDbEntity
  8
LAYER_1
 62
     7
100
AcDbVertex
100
AcDb2dVertex
 10
143.359725
 20
104.225507
 30
0.0
  0
SEQEND
  5
F1
100
AcDbEntity
  8
LAYER_1
 62
     7
  0
MTEXT
  5
EC
100
AcDbEntity
  8
LAYER_1
 62
     7
100
AcDbMText
 10
158.941252
 20
114.246257
 30
0.0
 40
2.612367
 41
0.0
 71
     1
 72
     2
  1
\W0.50;\fMS Gothic|b0|i0|c128;乾式保護工法  600以下
  7
KANJISTD
210
0.0
220
0.0
230
1.0
 11
0.0
 21
1.0
 31
0.0
 73
     1
 44
1.0
  0
MTEXT
  5
EB
100
AcDbEntity
  8
LAYER_1
 62
     7
100
AcDbMText
 10
32.719967
 20
151.466847
 30
0.0
 40
2.612367
 41
0.0
 71
     1
 72
     2
  1
\W0.50;\fMS Gothic|b0|i0|c128;(20)
  7
STD
210
0.0
220
0.0
230
1.0
 11
1.000001
 21
0.0
 31
0.0
 73
     1
 44
1.0
  0
MTEXT
  5
EA
100
AcDbEntity
  8
LAYER_1
 62
     7
100
AcDbMText
 10
52.487236
 20
151.233269
 30
0.0
 40
2.612367
 41
0.0
 71
     1
 72
     2
  1
\W0.50;\fMS Gothic|b0|i0|c128;(180)
  7
STD
210
0.0
220
0.0
230
1.0
 11
1.000001
 21
0.0
 31
0.0
 73
     1
 44
1.0
  0
LINE
  5
E9
100
AcDbEntity
  8
LAYER_1
 62
     7
100
AcDbLine
 10
68.472134
 20
148.234191
 30
0.0
 11
31.273371
 21
148.234191
 31
0.0
  0
MTEXT
  5
E8
100
AcDbEntity
  8
LAYER_1
 62
     7
100
AcDbMText
 10
87.112045
 20
199.710118
 30
0.0
 40
2.612367
 41
0.0
 71
     1
 72
     2
  1
\W0.50;\fMS Gothic|b0|i0|c128;(25)
  7
STD
210
0.0
220
0.0
230
1.0
 11
0.0
 21
1.0
 31
0.0
 73
     1
 44
1.0
  0
MTEXT
  5
E7
100
AcDbEntity
  8
LAYER_1
 62
     7
100
AcDbMText
 10
83.787527
 20
187.187024
 30
0.0
 40
2.612367
 41
0.0
 71
     1
 72
     2
  1
\W0.50;\fMS Gothic|b0|i0|c128;(170)
  7
STD
210
0.0
220
0.0
230
1.0
 11
0.0
 21
1.0
 31
0.0
 73
     1
 44
1.0
  0
MTEXT
  5
E6
100
AcDbEntity
  8
LAYER_1
 62
     7
100
AcDbMText
 10
128.663292
 20
111.183862
 30
0.0
 40
2.612367
 41
0.0
 71
     1
 72
     2
  1
\W0.50;\fMS Gothic|b0|i0|c128;伸縮目地
  7
KANJISTD
210
0.0
220
0.0
230
1.0
 11
1.000001
 21
0.0
 31
0.0
 73
     1
 44
1.0
  0
MTEXT
  5
E5
100
AcDbEntity
  8
LAYER_1
 62
     7
100
AcDbMText
 10
179.94216
 20
114.831529
 30
0.0
 40
2.612367
 41
0.0
 71
     1
 72
     2
  1
\W0.50;\fMS Gothic|b0|i0|c128;防水層
  7
KANJISTD
210
0.0
220
0.0
230
1.0
 11
1.000001
 21
0.0
 31
0.0
 73
     1
 44
1.0
  0
MTEXT
  5
E4
100
AcDbEntity
  8
LAYER_1
 62
     7
100
AcDbMText
 10
179.437798
 20
124.956665
 30
0.0
 40
2.612367
 41
0.0
 71
     1
 72
     2
  1
\W0.50;\fMS Gothic|b0|i0|c128;押さえコンクリート
  7
KANJISTD
210
0.0
220
0.0
230
1.0
 11
1.000001
 21
0.0
 31
0.0
 73
     1
 44
1.0
  0
MTEXT
  5
E3
100
AcDbEntity
  8
LAYER_1
 62
     7
100
AcDbMText
 10
121.175033
 20
105.713395
 30
0.0
 40
2.612367
 41
0.0
 71
     1
 72
     2
  1
\W0.50;\fMS Gothic|b0|i0|c128;溶接金網
  7
KANJISTD
210
0.0
220
0.0
230
1.0
 11
1.000001
 21
0.0
 31
0.0
 73
     1
 44
1.0
  0
POLYLINE
  5
DE
100
AcDbEntity
  8
LAYER_1
 62
     7
100
AcDb2dPolyline
 66
     1
 10
0.0
 20
0.0
 30
0.0
  0
VERTEX
  5
DF
100
AcDbEntity
  8
LAYER_1
 62
     7
100
AcDbVertex
100
AcDb2dVertex
 10
81.498385
 20
93.721411
 30
0.0
  0
VERTEX
  5
E0
100
AcDbEntity
  8
LAYER_1
 62
     7
100
AcDbVertex
100
AcDb2dVertex
 10
88.812322
 20
93.721411
 30
0.0
  0
VERTEX
  5
E1
100
AcDbEntity
  8
LAYER_1
 62
     7
100
AcDbVertex
100
AcDb2dVertex
 10
88.812322
 20
104.847002
 30
0.0
  0
SEQEND
  5
E2
100
AcDbEntity
  8
LAYER_1
 62
     7
  0
MTEXT
  5
DD
100
AcDbEntity
  8
LAYER_1
 62
     7
100
AcDbMText
 10
93.384136
 20
131.552989
 30
0.0
 40
2.612367
 41
0.0
 71
     1
 72
     2
  1
\W0.50;\fMS Gothic|b0|i0|c128;成形緩衝材
  7
KANJISTD
210
0.0
220
0.0
230
1.0
 11
1.000001
 21
0.0
 31
0.0
 73
     1
 44
1.0
  0
MTEXT
  5
DC
100
AcDbEntity
  8
LAYER_1
 62
     7
100
AcDbMText
 10
93.384136
 20
113.938216
 30
0.0
 40
2.612367
 41
0.0
 71
     1
 72
     2
  1
\W0.50;\fMS Gothic|b0|i0|c128;アンカー
  7
KANJISTD
210
0.0
220
0.0
230
1.0
 11
1.000001
 21
0.0
 31
0.0
 73
     1
 44
1.0
  0
MTEXT
  5
DB
100
AcDbEntity
  8
LAYER_1
 62
     7
100
AcDbMText
 10
92.290712
 20
163.728163
 30
0.0
 40
2.612367
 41
0.0
 71
     1
 72
     2
  1
\W0.50;\fMS Gothic|b0|i0|c128;10程度
  7
KANJISTD
210
0.0
220
0.0
230
1.0
 11
0.0
 21
1.0
 31
0.0
 73
     1
 44
1.0
  0
MTEXT
  5
DA
100
AcDbEntity
  8
LAYER_1
 62
     7
100
AcDbMText
 10
90.032624
 20
93.886431
 30
0.0
 40
2.612367
 41
0.0
 71
     1
 72
     2
  1
\W0.50;\fMS Gothic|b0|i0|c128;50以下
  7
KANJISTD
210
0.0
220
0.0
230
1.0
 11
0.0
 21
1.0
 31
0.0
 73
     1
 44
1.0
  0
MTEXT
  5
D9
100
AcDbEntity
  8
LAYER_1
 62
     7
100
AcDbMText
 10
71.418207
 20
82.294669
 30
0.0
 40
2.612367
 41
0.0
 71
     1
 72
     2
  1
\W0.50;\fMS Gothic|b0|i0|c128;30以上
  7
KANJISTD
210
0.0
220
0.0
230
1.0
 11
1.000001
 21
0.0
 31
0.0
 73
     1
 44
1.0
  0
MTEXT
  5
D8
100
AcDbEntity
  8
LAYER_1
 62
     7
100
AcDbMText
 10
106.427268
 20
73.743253
 30
0.0
 40
2.612367
 41
0.0
 71
     1
 72
     2
  1
\W0.50;\fMS Gothic|b0|i0|c128;600程度
  7
KANJISTD
210
0.0
220
0.0
230
1.0
 11
1.000001
 21
0.0
 31
0.0
 73
     1
 44
1.0
  0
MTEXT
  5
D7
100
AcDbEntity
  8
LAYER_1
 62
     7
100
AcDbMText
 10
145.614884
 20
106.955352
 30
0.0
 40
2.612367
 41
0.0
 71
     1
 72
     2
  1
\W0.50;\fMS Gothic|b0|i0|c128;(25)
  7
STD
210
0.0
220
0.0
230
1.0
 11
1.000001
 21
0.0
 31
0.0
 73
     1
 44
1.0
  0
MTEXT
  5
D6
100
AcDbEntity
  8
LAYER_1
 62
     7
100
AcDbMText
 10
119.315419
 20
89.210403
 30
0.0
 40
2.612367
 41
0.0
 71
     1
 72
     2
  1
\W0.50;\fMS Gothic|b0|i0|c128;(80)
  7
STD
210
0.0
220
0.0
230
1.0
 11
0.0
 21
1.0
 31
0.0
 73
     1
 44
1.0
  0
LINE
  5
D5
100
AcDbEntity
  8
LAYER_1
 62
     7
100
AcDbLine
 10
122.5324
 20
86.747849
 30
0.0
 11
122.5324
 21
97.572339
 31
0.0
  0
POLYLINE
  5
CF
100
AcDbEntity
  8
LAYER_1
 62
     7
100
AcDb2dPolyline
 66
     1
 10
0.0
 20
0.0
 30
0.0
  0
VERTEX
  5
D0
100
AcDbEntity
  8
LAYER_1
 62
     7
100
AcDbVertex
100
AcDb2dVertex
 10
147.029785
 20
89.432267
 30
0.0
  0
VERTEX
  5
D1
100
AcDbEntity
  8
LAYER_1
 62
     7
100
AcDbVertex
100
AcDb2dVertex
 10
147.029785
 20
70.781209
 30
0.0
  0
VERTEX
  5
D2
100
AcDbEntity
  8
LAYER_1
 62
     7
100
AcDbVertex
100
AcDb2dVertex
 10
70.45427
 20
70.781209
 30
0.0
  0
VERTEX
  5
D3
100
AcDbEntity
  8
LAYER_1
 62
     7
100
AcDbVertex
100
AcDb2dVertex
 10
70.45427
 20
78.9044
 30
0.0
  0
SEQEND
  5
D4
100
AcDbEntity
  8
LAYER_1
 62
     7
  0
POLYLINE
  5
C9
100
AcDbEntity
  8
LAYER_1
 62
     7
100
AcDb2dPolyline
 66
     1
 10
0.0
 20
0.0
 30
0.0
  0
VERTEX
  5
CA
100
AcDbEntity
  8
LAYER_1
 62
     7
100
AcDbVertex
100
AcDb2dVertex
 10
148.814
 20
98.367122
 30
0.0
  0
VERTEX
  5
CB
100
AcDbEntity
  8
LAYER_1
 62
     7
100
AcDbVertex
100
AcDb2dVertex
 10
148.814
 20
103.789703
 30
0.0
  0
VERTEX
  5
CC
100
AcDbEntity
  8
LAYER_1
 62
     7
100
AcDbVertex
100
AcDb2dVertex
 10
145.380273
 20
103.789703
 30
0.0
  0
VERTEX
  5
CD
100
AcDbEntity
  8
LAYER_1
 62
     7
100
AcDbVertex
100
AcDb2dVertex
 10
145.380273
 20
98.367122
 30
0.0
  0
SEQEND
  5
CE
100
AcDbEntity
  8
LAYER_1
 62
     7
  0
POLYLINE
  5
C3
100
AcDbEntity
  8
LAYER_1
 62
     7
100
AcDb2dPolyline
 66
     1
 10
0.0
 20
0.0
 30
0.0
 70
     1
  0
VERTEX
  5
C4
100
AcDbEntity
  8
LAYER_1
 62
     7
100
AcDbVertex
100
AcDb2dVertex
 10
148.757501
 20
87.300787
 30
0.0
  0
VERTEX
  5
C5
100
AcDbEntity
  8
LAYER_1
 62
     7
100
AcDbVertex
100
AcDb2dVertex
 10
148.757501
 20
97.457617
 30
0.0
  0
VERTEX
  5
C6
100
AcDbEntity
  8
LAYER_1
 62
     7
100
AcDbVertex
100
AcDb2dVertex
 10
145.457788
 20
97.457617
 30
0.0
  0
VERTEX
  5
C7
100
AcDbEntity
  8
LAYER_1
 62
     7
100
AcDbVertex
100
AcDb2dVertex
 10
145.457788
 20
87.300787
 30
0.0
  0
SEQEND
  5
C8
100
AcDbEntity
  8
LAYER_1
 62
     7
  0
MTEXT
  5
C2
100
AcDbEntity
  8
LAYER_1
 62
     7
100
AcDbMText
 10
82.532947
 20
211.114885
 30
0.0
 40
2.612367
 41
0.0
 71
     1
 72
     2
  1
\W0.50;\fMS Gothic|b0|i0|c128;コンクリートこて仕上げA種
  7
KANJISTD
210
0.0
220
0.0
230
1.0
 11
1.000001
 21
0.0
 31
0.0
 73
     1
 44
1.0
  0
LINE
  5
C1
100
AcDbEntity
  8
LAYER_1
 62
     7
100
AcDbLine
 10
73.005535
 20
163.666151
 30
0.0
 11
68.637154
 21
167.99233
 31
0.0
  0
LINE
  5
C0
100
AcDbEntity
  8
LAYER_1
 62
     7
100
AcDbLine
 10
71.568414
 20
163.340245
 30
0.0
 11
72.377494
 21
164.149154
 31
0.0
  0
LINE
  5
BF
100
AcDbEntity
  8
LAYER_1
 62
     7
100
AcDbLine
 10
70.052055
 20
163.14353
 30
0.0
 11
71.746525
 21
164.838173
 31
0.0
  0
LINE
  5
BE
100
AcDbEntity
  8
LAYER_1
 62
     7
100
AcDbLine
 10
69.153229
 20
163.564521
 30
0.0
 11
71.080071
 21
165.491363
 31
0.0
  0
LINE
  5
BD
100
AcDbEntity
  8
LAYER_1
 62
     7
100
AcDbLine
 10
68.68728
 20
166.920733
 30
0.0
 11
69.256238
 21
167.489518
 31
0.0
  0
LINE
  5
BC
100
AcDbEntity
  8
LAYER_1
 62
     7
100
AcDbLine
 10
68.62923
 20
165.669474
 30
0.0
 11
69.794534
 21
166.83495
 31
0.0
  0
LINE
  5
BB
100
AcDbEntity
  8
LAYER_1
 62
     7
100
AcDbLine
 10
68.542242
 20
164.273177
 30
0.0
 11
70.478213
 21
166.209321
 31
0.0
  0
LINE
  5
BA
100
AcDbEntity
  8
LAYER_1
 62
     7
100
AcDbLine
 10
68.579104
 20
174.80759
 30
0.0
 11
70.89662
 21
177.123728
 31
0.0
  0
LINE
  5
B9
100
AcDbEntity
  8
LAYER_1
 62
     7
100
AcDbLine
 10
68.579104
 20
176.127406
 30
0.0
 11
69.567674
 21
177.114598
 31
0.0
  0
LINE
  5
B8
100
AcDbEntity
  8
LAYER_1
 62
     7
100
AcDbLine
 10
63.29605
 20
158.899173
 30
0.0
 11
71.415279
 21
158.899173
 31
0.0
  0
POLYLINE
  5
B3
100
AcDbEntity
  8
LAYER_1
 62
     7
100
AcDb2dPolyline
 66
     1
 10
0.0
 20
0.0
 30
0.0
  0
VERTEX
  5
B4
100
AcDbEntity
  8
LAYER_1
 62
     7
100
AcDbVertex
100
AcDb2dVertex
 10
73.253754
 20
163.315096
 30
0.0
  0
VERTEX
  5
B5
100
AcDbEntity
  8
LAYER_1
 62
     7
100
AcDbVertex
100
AcDb2dVertex
 10
71.122446
 20
163.315096
 30
0.0
  0
VERTEX
  5
B6
100
AcDbEntity
  8
LAYER_1
 62
     7
100
AcDbVertex
100
AcDb2dVertex
 10
71.122446
 20
154.789518
 30
0.0
  0
SEQEND
  5
B7
100
AcDbEntity
  8
LAYER_1
 62
     7
  0
LINE
  5
B2
100
AcDbEntity
  8
LAYER_1
 62
     7
100
AcDbLine
 10
72.468617
 20
78.9044
 30
0.0
 11
71.082827
 21
78.9044
 31
0.0
  0
POLYLINE
  5
AD
100
AcDbEntity
  8
LAYER_1
 62
     7
100
AcDb2dPolyline
 66
     1
 10
0.0
 20
0.0
 30
0.0
  0
VERTEX
  5
AE
100
AcDbEntity
  8
LAYER_1
 62
     7
100
AcDbVertex
100
AcDb2dVertex
 10
78.800703
 20
176.943032
 30
0.0
  0
VERTEX
  5
AF
100
AcDbEntity
  8
LAYER_1
 62
     7
100
AcDbVertex
100
AcDb2dVertex
 10
86.67843
 20
176.945616
 30
0.0
  0
VERTEX
  5
B0
100
AcDbEntity
  8
LAYER_1
 62
     7
100
AcDbVertex
100
AcDb2dVertex
 10
86.67843
 20
206.92656
 30
0.0
  0
SEQEND
  5
B1
100
AcDbEntity
  8
LAYER_1
 62
     7
  0
LINE
  5
AC
100
AcDbEntity
  8
LAYER_1
 62
     7
100
AcDbLine
 10
79.461989
 20
199.379045
 30
0.0
 11
86.67843
 21
199.379045
 31
0.0
  0
LINE
  5
AB
100
AcDbEntity
  8
LAYER_1
 62
     7
100
AcDbLine
 10
162.374585
 20
160.925061
 30
0.0
 11
162.374585
 21
97.590942
 31
0.0
  0
LINE
  5
AA
100
AcDbEntity
  8
LAYER_1
 62
     7
100
AcDbLine
 10
43.379609
 20
202.626908
 30
0.0
 11
86.600571
 21
202.649301
 31
0.0
  0
MTEXT
  5
A9
100
AcDbEntity
  8
LAYER_1
 62
     7
100
AcDbMText
 10
95.452227
 20
121.140188
 30
0.0
 40
2.612367
 41
0.0
 71
     1
 72
     2
  1
\W0.50;\fMS Gothic|b0|i0|c128;下部ホルダー
  7
KANJISTD
210
0.0
220
0.0
230
1.0
 11
1.000001
 21
0.0
 31
0.0
 73
     1
 44
1.0
  0
MTEXT
  5
A8
100
AcDbEntity
  8
LAYER_1
 62
     7
100
AcDbMText
 10
96.121265
 20
148.833933
 30
0.0
 40
2.612367
 41
0.0
 71
     1
 72
     2
  1
\W0.50;\fMS Gothic|b0|i0|c128;ボード
  7
KANJISTD
210
0.0
220
0.0
230
1.0
 11
1.000001
 21
0.0
 31
0.0
 73
     1
 44
1.0
  0
SPLINE
  5
A7
100
AcDbEntity
  8
LAYER_1
 62
     7
100
AcDbSpline
210
0.0
220
0.0
230
1.0
 70
     8
 71
     3
 72
    17
 73
    13
 74
     0
 42
0.00000001
 43
0.00000001
 40
0.0
 40
0.0
 40
0.0
 40
0.0
 40
1.0
 40
1.0
 40
1.0
 40
2.0
 40
2.0
 40
2.0
 40
3.0
 40
3.0
 40
3.0
 40
4.0
 40
4.0
 40
4.0
 40
4.0
 10
182.40988226996527
 20
92.602099609374989
 30
0.0
 10
182.65172797309026
 20
92.759540473090269
 30
0.0
 10
182.79056532118054
 20
93.034803602430543
 30
0.0
 10
182.77299533420137
 20
93.32281358506944
 30
0.0
 10
182.69479166666665
 20
93.700396050347209
 30
0.0
 10
182.35269368489583
 20
93.96429036458332
 30
0.0
 10
181.96787651909722
 20
93.944308810763886
 30
0.0
 10
181.59029405381943
 20
93.866105143229163
 30
0.0
 10
181.32639973958331
 20
93.52435167100694
 30
0.0
 10
181.34638129340277
 20
93.13918999565972
 30
0.0
 10
181.52001410590276
 20
92.722333441840263
 30
0.0
 10
181.9713216145833
 20
92.494268120659711
 30
0.0
 10
182.40988226996527
 20
92.602099609374989
 30
0.0
  0
SPLINE
  5
A6
100
AcDbEntity
  8
LAYER_1
 62
     7
100
AcDbSpline
210
0.0
220
0.0
230
1.0
 70
     8
 71
     3
 72
    17
 73
    13
 74
     0
 42
0.00000001
 43
0.00000001
 40
0.0
 40
0.0
 40
0.0
 40
0.0
 40
1.0
 40
1.0
 40
1.0
 40
2.0
 40
2.0
 40
2.0
 40
3.0
 40
3.0
 40
3.0
 40
4.0
 40
4.0
 40
4.0
 40
4.0
 10
173.17185872395831
 20
92.602099609374989
 30
0.0
 10
173.41370442708333
 20
92.759540473090269
 30
0.0
 10
173.55219726562498
 20
93.034803602430543
 30
0.0
 10
173.53462727864581
 20
93.32281358506944
 30
0.0
 10
173.45642361111109
 20
93.700396050347209
 30
0.0
 10
173.11467013888887
 20
93.96429036458332
 30
0.0
 10
172.72950846354166
 20
93.944308810763886
 30
0.0
 10
172.35227050781248
 20
93.866105143229163
 30
0.0
 10
172.08803168402775
 20
93.52435167100694
 30
0.0
 10
172.10801323784722
 20
93.13918999565972
 30
0.0
 10
172.28130154079861
 20
92.722333441840263
 30
0.0
 10
172.73329806857637
 20
92.494268120659711
 30
0.0
 10
173.17185872395831
 20
92.602099609374989
 30
0.0
  0
SPLINE
  5
A5
100
AcDbEntity
  8
LAYER_1
 62
     7
100
AcDbSpline
210
0.0
220
0.0
230
1.0
 70
     8
 71
     3
 72
    17
 73
    13
 74
     0
 42
0.00000001
 43
0.00000001
 40
0.0
 40
0.0
 40
0.0
 40
0.0
 40
1.0
 40
1.0
 40
1.0
 40
2.0
 40
2.0
 40
2.0
 40
3.0
 40
3.0
 40
3.0
 40
4.0
 40
4.0
 40
4.0
 40
4.0
 10
163.93314615885416
 20
92.602099609374989
 30
0.0
 10
164.17533637152775
 20
92.759540473090269
 30
0.0
 10
164.31382921006943
 20
93.034803602430543
 30
0.0
 10
164.29625922309026
 20
93.32281358506944
 30
0.0
 10
164.21805555555554
 20
93.700396050347209
 30
0.0
 10
163.87595757378472
 20
93.96429036458332
 30
0.0
 10
163.49114040798611
 20
93.944308810763886
 30
0.0
 10
163.11390245225692
 20
93.866105143229163
 30
0.0
 10
162.85000813802083
 20
93.52435167100694
 30
0.0
 10
162.86964518229166
 20
93.13918999565972
 30
0.0
 10
163.04293348524305
 20
92.722333441840263
 30
0.0
 10
163.49458550347219
 20
92.494268120659711
 30
0.0
 10
163.93314615885416
 20
92.602099609374989
 30
0.0
  0
SPLINE
  5
A4
100
AcDbEntity
  8
LAYER_1
 62
     7
100
AcDbSpline
210
0.0
220
0.0
230
1.0
 70
     8
 71
     3
 72
    17
 73
    13
 74
     0
 42
0.00000001
 43
0.00000001
 40
0.0
 40
0.0
 40
0.0
 40
0.0
 40
1.0
 40
1.0
 40
1.0
 40
2.0
 40
2.0
 40
2.0
 40
3.0
 40
3.0
 40
3.0
 40
4.0
 40
4.0
 40
4.0
 40
4.0
 10
154.6951226128472
 20
92.602099609374989
 30
0.0
 10
154.9366238064236
 20
92.759540473090269
 30
0.0
 10
155.07546115451387
 20
93.034803602430543
 30
0.0
 10
155.05789116753471
 20
93.32281358506944
 30
0.0
 10
154.97968749999998
 20
93.700396050347209
 30
0.0
 10
154.63793402777776
 20
93.96429036458332
 30
0.0
 10
154.25277235243055
 20
93.944308810763886
 30
0.0
 10
153.87553439670137
 20
93.866105143229163
 30
0.0
 10
153.61164008246527
 20
93.52435167100694
 30
0.0
 10
153.63127712673611
 20
93.13918999565972
 30
0.0
 10
153.8049099392361
 20
92.722333441840263
 30
0.0
 10
154.25656195746527
 20
92.494268120659711
 30
0.0
 10
154.6951226128472
 20
92.602099609374989
 30
0.0
  0
SPLINE
  5
A3
100
AcDbEntity
  8
LAYER_1
 62
     7
100
AcDbSpline
210
0.0
220
0.0
230
1.0
 70
     8
 71
     3
 72
    20
 73
    16
 74
     0
 42
0.00000001
 43
0.00000001
 40
0.0
 40
0.0
 40
0.0
 40
0.0
 40
1.0
 40
1.0
 40
1.0
 40
2.0
 40
2.0
 40
2.0
 40
3.0
 40
3.0
 40
3.0
 40
4.0
 40
4.0
 40
4.0
 40
5.0
 40
5.0
 40
5.0
 40
5.0
 10
139.94391276041665
 20
92.631382921006931
 30
0.0
 10
140.17128906249999
 20
92.758851453993046
 30
0.0
 10
140.31253797743054
 20
92.998974609374997
 30
0.0
 10
140.31357150607639
 20
93.259423828124994
 30
0.0
 10
140.30048014322915
 20
93.461995442708329
 30
0.0
 10
140.20780707465278
 20
93.65078667534722
 30
0.0
 10
140.05553385416664
 20
93.784456380208326
 30
0.0
 10
139.90326063368053
 20
93.918470594618043
 30
0.0
 10
139.70413411458333
 20
93.986338975694437
 30
0.0
 10
139.5019070095486
 20
93.973592122395829
 30
0.0
 10
139.12432454427082
 20
93.895388454861106
 30
0.0
 10
138.86043023003472
 20
93.553290473090271
 30
0.0
 10
138.88041178385416
 20
93.168473307291663
 30
0.0
 10
139.05370008680555
 20
92.75161675347222
 30
0.0
 10
139.50535210503472
 20
92.523551432291654
 30
0.0
 10
139.94391276041665
 20
92.631382921006931
 30
0.0
  0
SPLINE
  5
A2
100
AcDbEntity
  8
LAYER_1
 62
     7
100
AcDbSpline
210
0.0
220
0.0
230
1.0
 70
     8
 71
     3
 72
    17
 73
    13
 74
     0
 42
0.00000001
 43
0.00000001
 40
0.0
 40
0.0
 40
0.0
 40
0.0
 40
1.0
 40
1.0
 40
1.0
 40
2.0
 40
2.0
 40
2.0
 40
3.0
 40
3.0
 40
3.0
 40
4.0
 40
4.0
 40
4.0
 40
4.0
 10
130.7055447048611
 20
92.631382921006931
 30
0.0
 10
130.94739040798609
 20
92.7884792751736
 30
0.0
 10
131.08622775607637
 20
93.063742404513874
 30
0.0
 10
131.0686577690972
 20
93.351752387152771
 30
0.0
 10
130.99010959201388
 20
93.72933485243054
 30
0.0
 10
130.64835611979166
 20
93.993229166666652
 30
0.0
 10
130.26353895399305
 20
93.973592122395829
 30
0.0
 10
129.88595648871527
 20
93.895388454861106
 30
0.0
 10
129.62206217447917
 20
93.553290473090271
 30
0.0
 10
129.6420437282986
 20
93.168473307291663
 30
0.0
 10
129.81533203124999
 20
92.75161675347222
 30
0.0
 10
130.26698404947916
 20
92.523551432291654
 30
0.0
 10
130.7055447048611
 20
92.631382921006931
 30
0.0
  0
SPLINE
  5
A1
100
AcDbEntity
  8
LAYER_1
 62
     7
100
AcDbSpline
210
0.0
220
0.0
230
1.0
 70
     8
 71
     3
 72
    17
 73
    13
 74
     0
 42
0.00000001
 43
0.00000001
 40
0.0
 40
0.0
 40
0.0
 40
0.0
 40
1.0
 40
1.0
 40
1.0
 40
2.0
 40
2.0
 40
2.0
 40
3.0
 40
3.0
 40
3.0
 40
4.0
 40
4.0
 40
4.0
 40
4.0
 10
112.22880859374999
 20
92.631382921006931
 30
0.0
 10
112.47099880642359
 20
92.7884792751736
 30
0.0
 10
112.60949164496527
 20
93.063742404513874
 30
0.0
 10
112.59192165798611
 20
93.351752387152771
 30
0.0
 10
112.51371799045138
 20
93.72933485243054
 30
0.0
 10
112.17162000868055
 20
93.993229166666652
 30
0.0
 10
111.78680284288194
 20
93.973592122395829
 30
0.0
 10
111.40956488715277
 20
93.895388454861106
 30
0.0
 10
111.14532606336805
 20
93.553290473090271
 30
0.0
 10
111.16530761718749
 20
93.168473307291663
 30
0.0
 10
111.33859592013889
 20
92.75161675347222
 30
0.0
 10
111.79059244791665
 20
92.523551432291654
 30
0.0
 10
112.22880859374999
 20
92.631382921006931
 30
0.0
  0
SPLINE
  5
A0
100
AcDbEntity
  8
LAYER_1
 62
     7
100
AcDbSpline
210
0.0
220
0.0
230
1.0
 70
     8
 71
     3
 72
    17
 73
    13
 74
     0
 42
0.00000001
 43
0.00000001
 40
0.0
 40
0.0
 40
0.0
 40
0.0
 40
1.0
 40
1.0
 40
1.0
 40
2.0
 40
2.0
 40
2.0
 40
3.0
 40
3.0
 40
3.0
 40
4.0
 40
4.0
 40
4.0
 40
4.0
 10
102.99061279296875
 20
92.631382921006931
 30
0.0
 10
103.23245849609374
 20
92.7884792751736
 30
0.0
 10
103.37112358940971
 20
93.063742404513874
 30
0.0
 10
103.35355360243055
 20
93.351752387152771
 30
0.0
 10
103.27534993489583
 20
93.72933485243054
 30
0.0
 10
102.93359646267361
 20
93.993229166666652
 30
0.0
 10
102.54843478732639
 20
93.973592122395829
 30
0.0
 10
102.17119683159721
 20
93.895388454861106
 30
0.0
 10
101.90713026258679
 20
93.553290473090271
 30
0.0
 10
101.92693956163194
 20
93.168473307291663
 30
0.0
 10
102.10040011935763
 20
92.75161675347222
 30
0.0
 10
102.5522243923611
 20
92.523551432291654
 30
0.0
 10
102.99061279296875
 20
92.631382921006931
 30
0.0
  0
SPLINE
  5
9F
100
AcDbEntity
  8
LAYER_1
 62
     7
100
AcDbSpline
210
0.0
220
0.0
230
1.0
 70
     8
 71
     3
 72
    17
 73
    13
 74
     0
 42
0.00000001
 43
0.00000001
 40
0.0
 40
0.0
 40
0.0
 40
0.0
 40
1.0
 40
1.0
 40
1.0
 40
2.0
 40
2.0
 40
2.0
 40
3.0
 40
3.0
 40
3.0
 40
4.0
 40
4.0
 40
4.0
 40
4.0
 10
93.752244737413193
 20
92.631382921006931
 30
0.0
 10
93.994262695312486
 20
92.7884792751736
 30
0.0
 10
94.132755533854152
 20
93.063742404513874
 30
0.0
 10
94.115185546874997
 20
93.351752387152771
 30
0.0
 10
94.036981879340274
 20
93.72933485243054
 30
0.0
 10
93.695056152343739
 20
93.993229166666652
 30
0.0
 10
93.31023898654513
 20
93.973592122395829
 30
0.0
 10
92.93282877604166
 20
93.895388454861106
 30
0.0
 10
92.668934461805549
 20
93.553290473090271
 30
0.0
 10
92.688571506076386
 20
93.168473307291663
 30
0.0
 10
92.862032063802076
 20
92.75161675347222
 30
0.0
 10
93.313684082031244
 20
92.523551432291654
 30
0.0
 10
93.752244737413193
 20
92.631382921006931
 30
0.0
  0
SPLINE
  5
9E
100
AcDbEntity
  8
LAYER_1
 62
     7
100
AcDbSpline
210
0.0
220
0.0
230
1.0
 70
     8
 71
     3
 72
    17
 73
    13
 74
     0
 42
0.00000001
 43
0.00000001
 40
0.0
 40
0.0
 40
0.0
 40
0.0
 40
1.0
 40
1.0
 40
1.0
 40
2.0
 40
2.0
 40
2.0
 40
3.0
 40
3.0
 40
3.0
 40
4.0
 40
4.0
 40
4.0
 40
4.0
 10
84.514048936631937
 20
92.631382921006931
 30
0.0
 10
84.755722384982633
 20
92.7884792751736
 30
0.0
 10
84.894387478298597
 20
93.063742404513874
 30
0.0
 10
84.876989746093741
 20
93.351752387152771
 30
0.0
 10
84.79861382378472
 20
93.72933485243054
 30
0.0
 10
84.456860351562497
 20
93.993229166666652
 30
0.0
 10
84.071870930989576
 20
93.973592122395829
 30
0.0
 10
83.694460720486106
 20
93.895388454861106
 30
0.0
 10
83.430566406249994
 20
93.553290473090271
 30
0.0
 10
83.450203450520831
 20
93.168473307291663
 30
0.0
 10
83.62383626302082
 20
92.75161675347222
 30
0.0
 10
84.075488281249989
 20
92.523551432291654
 30
0.0
 10
84.514048936631937
 20
92.631382921006931
 30
0.0
  0
SPLINE
  5
9D
100
AcDbEntity
  8
LAYER_1
 62
     7
100
AcDbSpline
210
0.0
220
0.0
230
1.0
 70
     8
 71
     3
 72
    17
 73
    13
 74
     0
 42
0.00000001
 43
0.00000001
 40
0.0
 40
0.0
 40
0.0
 40
0.0
 40
1.0
 40
1.0
 40
1.0
 40
2.0
 40
2.0
 40
2.0
 40
3.0
 40
3.0
 40
3.0
 40
4.0
 40
4.0
 40
4.0
 40
4.0
 10
77.775958930121519
 20
95.625859917534711
 30
0.0
 10
77.852267795138886
 20
95.69476182725694
 30
0.0
 10
77.896192762586793
 20
95.792258029513874
 30
0.0
 10
77.897226291232627
 20
95.894921874999994
 30
0.0
 10
77.89550374348957
 20
96.09301486545138
 30
0.0
 10
77.734962293836801
 20
96.25286729600694
 30
0.0
 10
77.537041558159714
 20
96.253900824652774
 30
0.0
 10
77.33929307725694
 20
96.252522786458329
 30
0.0
 10
77.17944064670138
 20
96.092670355902769
 30
0.0
 10
77.177890353732636
 20
95.894921874999994
 30
0.0
 10
77.2700466579861
 20
95.656865776909711
 30
0.0
 10
77.536352539062491
 20
95.536976453993049
 30
0.0
 10
77.775958930121519
 20
95.625859917534711
 30
0.0
  0
SPLINE
  5
9C
100
AcDbEntity
  8
LAYER_1
 62
     7
100
AcDbSpline
210
0.0
220
0.0
230
1.0
 70
     8
 71
     3
 72
    17
 73
    13
 74
     0
 42
0.00000001
 43
0.00000001
 40
0.0
 40
0.0
 40
0.0
 40
0.0
 40
1.0
 40
1.0
 40
1.0
 40
2.0
 40
2.0
 40
2.0
 40
3.0
 40
3.0
 40
3.0
 40
4.0
 40
4.0
 40
4.0
 40
4.0
 10
72.048832194010416
 20
97.342895507812486
 30
0.0
 10
72.124796549479157
 20
97.411797417534714
 30
0.0
 10
72.168377007378467
 20
97.509638129340274
 30
0.0
 10
72.168893771701377
 20
97.611957465277769
 30
0.0
 10
72.167860243055543
 20
97.810050455729154
 30
0.0
 10
72.007835557725684
 20
97.970591905381937
 30
0.0
 10
71.809914822048611
 20
97.972314453124994
 30
0.0
 10
71.6114773220486
 20
97.970936414930549
 30
0.0
 10
71.45110812717013
 20
97.810394965277766
 30
0.0
 10
71.449730088975684
 20
97.611957465277769
 30
0.0
 10
71.542230902777774
 20
97.373556857638874
 30
0.0
 10
71.809053548177076
 20
97.253667534722211
 30
0.0
 10
72.048832194010416
 20
97.342895507812486
 30
0.0
  0
SPLINE
  5
9B
100
AcDbEntity
  8
LAYER_1
 62
     7
100
AcDbSpline
210
0.0
220
0.0
230
1.0
 70
     8
 71
     3
 72
    17
 73
    13
 74
     0
 42
0.00000001
 43
0.00000001
 40
0.0
 40
0.0
 40
0.0
 40
0.0
 40
1.0
 40
1.0
 40
1.0
 40
2.0
 40
2.0
 40
2.0
 40
3.0
 40
3.0
 40
3.0
 40
4.0
 40
4.0
 40
4.0
 40
4.0
 10
79.845600043402769
 20
101.16764051649305
 30
0.0
 10
79.922081163194434
 20
101.23619791666665
 30
0.0
 10
79.966006130642356
 20
101.33403862847221
 30
0.0
 10
79.96703965928819
 20
101.43670247395832
 30
0.0
 10
79.965317111545133
 20
101.63479546440972
 30
0.0
 10
79.80477566189235
 20
101.79464789496527
 30
0.0
 10
79.606854926215277
 20
101.7956814236111
 30
0.0
 10
79.409106445312489
 20
101.79430338541665
 30
0.0
 10
79.249254014756943
 20
101.63445095486111
 30
0.0
 10
79.247703721788184
 20
101.43670247395832
 30
0.0
 10
79.340032280815961
 20
101.19864637586805
 30
0.0
 10
79.606165907118054
 20
101.07875705295137
 30
0.0
 10
79.845600043402769
 20
101.16764051649305
 30
0.0
  0
POLYLINE
  5
96
100
AcDbEntity
  8
LAYER_1
 62
     7
100
AcDb2dPolyline
 66
     1
 10
0.0
 20
0.0
 30
0.0
  0
VERTEX
  5
97
100
AcDbEntity
  8
LAYER_1
 62
     7
100
AcDbVertex
100
AcDb2dVertex
 10
138.166243
 20
92.554902
 30
0.0
  0
VERTEX
  5
98
100
AcDbEntity
  8
LAYER_1
 62
     7
100
AcDbVertex
100
AcDb2dVertex
 10
131.405244
 20
104.392939
 30
0.0
  0
VERTEX
  5
99
100
AcDbEntity
  8
LAYER_1
 62
     7
100
AcDbVertex
100
AcDb2dVertex
 10
129.987587
 20
104.392939
 30
0.0
  0
SEQEND
  5
9A
100
AcDbEntity
  8
LAYER_1
 62
     7
  0
POLYLINE
  5
91
100
AcDbEntity
  8
LAYER_1
 62
     7
100
AcDb2dPolyline
 66
     1
 10
0.0
 20
0.0
 30
0.0
  0
VERTEX
  5
92
100
AcDbEntity
  8
LAYER_1
 62
     7
100
AcDbVertex
100
AcDb2dVertex
 10
146.653581
 20
95.581074
 30
0.0
  0
VERTEX
  5
93
100
AcDbEntity
  8
LAYER_1
 62
     7
100
AcDbVertex
100
AcDb2dVertex
 10
138.574143
 20
109.747306
 30
0.0
  0
VERTEX
  5
94
100
AcDbEntity
  8
LAYER_1
 62
     7
100
AcDbVertex
100
AcDb2dVertex
 10
137.155452
 20
109.747306
 30
0.0
  0
SEQEND
  5
95
100
AcDbEntity
  8
LAYER_1
 62
     7
  0
LINE
  5
90
100
AcDbEntity
  8
LAYER_1
 62
     7
100
AcDbLine
 10
70.450825
 20
91.500358
 30
0.0
 11
70.450825
 21
78.90061
 31
0.0
  0
POLYLINE
  5
8B
100
AcDbEntity
  8
LAYER_1
 62
     7
100
AcDb2dPolyline
 66
     1
 10
0.0
 20
0.0
 30
0.0
  0
VERTEX
  5
8C
100
AcDbEntity
  8
LAYER_1
 62
     7
100
AcDbVertex
100
AcDb2dVertex
 10
77.522917
 20
92.427778
 30
0.0
  0
VERTEX
  5
8D
100
AcDbEntity
  8
LAYER_1
 62
     7
100
AcDbVertex
100
AcDb2dVertex
 10
77.522917
 20
78.90061
 30
0.0
  0
VERTEX
  5
8E
100
AcDbEntity
  8
LAYER_1
 62
     7
100
AcDbVertex
100
AcDb2dVertex
 10
70.511458
 20
78.90061
 30
0.0
  0
SEQEND
  5
8F
100
AcDbEntity
  8
LAYER_1
 62
     7
  0
LINE
  5
8A
100
AcDbEntity
  8
LAYER_1
 62
     7
100
AcDbLine
 10
77.548755
 20
99.02548
 30
0.0
 11
77.548755
 21
93.730713
 31
0.0
  0
POLYLINE
  5
80
100
AcDbEntity
  8
LAYER_1
 62
     7
100
AcDb2dPolyline
 66
     1
 10
0.0
 20
0.0
 30
0.0
 70
     1
  0
VERTEX
  5
81
100
AcDbEntity
  8
LAYER_1
 62
     7
100
AcDbVertex
100
AcDb2dVertex
 10
79.384991
 20
101.592421
 30
0.0
  0
VERTEX
  5
82
100
AcDbEntity
  8
LAYER_1
 62
     7
100
AcDbVertex
100
AcDb2dVertex
 10
79.382407
 20
98.351275
 30
0.0
  0
VERTEX
  5
83
100
AcDbEntity
  8
LAYER_1
 62
     7
100
AcDbVertex
100
AcDb2dVertex
 10
75.621052
 20
98.351275
 30
0.0
  0
VERTEX
  5
84
100
AcDbEntity
  8
LAYER_1
 62
     7
100
AcDbVertex
100
AcDb2dVertex
 10
75.621052
 20
101.592421
 30
0.0
  0
VERTEX
  5
85
100
AcDbEntity
  8
LAYER_1
 62
     7
100
AcDbVertex
100
AcDb2dVertex
 10
76.052722
 20
101.592421
 30
0.0
  0
VERTEX
  5
86
100
AcDbEntity
  8
LAYER_1
 62
     7
100
AcDbVertex
100
AcDb2dVertex
 10
76.052722
 20
98.782601
 30
0.0
  0
VERTEX
  5
87
100
AcDbEntity
  8
LAYER_1
 62
     7
100
AcDbVertex
100
AcDb2dVertex
 10
78.953493
 20
98.782601
 30
0.0
  0
VERTEX
  5
88
100
AcDbEntity
  8
LAYER_1
 62
     7
100
AcDbVertex
100
AcDb2dVertex
 10
78.953493
 20
101.592421
 30
0.0
  0
SEQEND
  5
89
100
AcDbEntity
  8
LAYER_1
 62
     7
  0
LINE
  5
7F
100
AcDbEntity
  8
LAYER_1
 62
     7
100
AcDbLine
 10
164.420283
 20
97.396984
 30
0.0
 11
174.527159
 21
87.290107
 31
0.0
  0
LINE
  5
7E
100
AcDbEntity
  8
LAYER_1
 62
     7
100
AcDbLine
 10
163.046379
 20
97.451072
 30
0.0
 11
173.203209
 21
87.292863
 31
0.0
  0
LINE
  5
7D
100
AcDbEntity
  8
LAYER_1
 62
     7
100
AcDbLine
 10
161.862644
 20
97.31499
 30
0.0
 11
171.868924
 21
87.30871
 31
0.0
  0
LINE
  5
7C
100
AcDbEntity
  8
LAYER_1
 62
     7
100
AcDbLine
 10
137.952648
 20
97.469331
 30
0.0
 11
145.320673
 21
90.101305
 31
0.0
  0
LINE
  5
7B
100
AcDbEntity
  8
LAYER_1
 62
     7
100
AcDbLine
 10
136.578743
 20
97.523763
 30
0.0
 11
145.388197
 21
88.712931
 31
0.0
  0
LINE
  5
7A
100
AcDbEntity
  8
LAYER_1
 62
     7
100
AcDbLine
 10
135.394664
 20
97.387682
 30
0.0
 11
145.368216
 21
87.412752
 31
0.0
  0
LINE
  5
79
100
AcDbEntity
  8
LAYER_1
 62
     7
100
AcDbLine
 10
111.600768
 20
97.425922
 30
0.0
 11
121.722114
 21
87.329725
 31
0.0
  0
LINE
  5
78
100
AcDbEntity
  8
LAYER_1
 62
     7
100
AcDbLine
 10
110.226864
 20
97.48001
 30
0.0
 11
120.399542
 21
87.332482
 31
0.0
  0
LINE
  5
77
100
AcDbEntity
  8
LAYER_1
 62
     7
100
AcDbLine
 10
109.043129
 20
97.344274
 30
0.0
 11
119.063878
 21
87.348329
 31
0.0
  0
LINE
  5
76
100
AcDbEntity
  8
LAYER_1
 62
     7
100
AcDbLine
 10
85.19101
 20
97.440392
 30
0.0
 11
95.329409
 21
87.300787
 31
0.0
  0
LINE
  5
75
100
AcDbEntity
  8
LAYER_1
 62
     7
100
AcDbLine
 10
83.8159
 20
97.49448
 30
0.0
 11
94.00701
 21
87.303543
 31
0.0
  0
LINE
  5
74
100
AcDbEntity
  8
LAYER_1
 62
     7
100
AcDbLine
 10
148.146341
 20
97.562004
 30
0.0
 11
145.533236
 21
94.948899
 31
0.0
  0
LINE
  5
73
100
AcDbEntity
  8
LAYER_1
 62
     7
100
AcDbLine
 10
146.074116
 20
97.530309
 30
0.0
 11
148.65587
 21
94.948899
 31
0.0
  0
LINE
  5
72
100
AcDbEntity
  8
LAYER_1
 62
     7
100
AcDbLine
 10
148.704446
 20
95.480477
 30
0.0
 11
145.533236
 21
92.309266
 31
0.0
  0
LINE
  5
71
100
AcDbEntity
  8
LAYER_1
 62
     7
100
AcDbLine
 10
145.482937
 20
95.480477
 30
0.0
 11
148.65587
 21
92.309266
 31
0.0
  0
LINE
  5
70
100
AcDbEntity
  8
LAYER_1
 62
     7
100
AcDbLine
 10
148.704446
 20
92.841189
 30
0.0
 11
145.533236
 21
89.669634
 31
0.0
  0
LINE
  5
6F
100
AcDbEntity
  8
LAYER_1
 62
     7
100
AcDbLine
 10
145.482937
 20
92.841189
 30
0.0
 11
148.65587
 21
89.669634
 31
0.0
  0
LINE
  5
6E
100
AcDbEntity
  8
LAYER_1
 62
     7
100
AcDbLine
 10
148.704446
 20
90.201557
 30
0.0
 11
145.853974
 21
87.350741
 31
0.0
  0
LINE
  5
6D
100
AcDbEntity
  8
LAYER_1
 62
     7
100
AcDbLine
 10
145.482937
 20
90.201557
 30
0.0
 11
148.366827
 21
87.318012
 31
0.0
  0
LINE
  5
6C
100
AcDbEntity
  8
LAYER_1
 62
     7
100
AcDbLine
 10
82.633371
 20
97.358743
 30
0.0
 11
92.689777
 21
87.300787
 31
0.0
  0
LINE
  5
6B
100
AcDbEntity
  8
LAYER_1
 62
     7
100
AcDbLine
 10
80.385791
 20
193.602308
 30
0.0
 11
74.052155
 21
199.93715
 31
0.0
  0
LINE
  5
6A
100
AcDbEntity
  8
LAYER_1
 62
     7
100
AcDbLine
 10
80.503269
 20
194.806025
 30
0.0
 11
75.12513
 21
200.183991
 31
0.0
  0
LINE
  5
69
100
AcDbEntity
  8
LAYER_1
 62
     7
100
AcDbLine
 10
80.47812
 20
196.14944
 30
0.0
 11
76.971529
 21
199.65603
 31
0.0
  0
LINE
  5
68
100
AcDbEntity
  8
LAYER_1
 62
     7
100
AcDbLine
 10
70.336964
 20
177.255675
 30
0.0
 11
48.223069
 21
199.22057
 31
0.0
  0
LINE
  5
67
100
AcDbEntity
  8
LAYER_1
 62
     7
100
AcDbLine
 10
71.680551
 20
177.231904
 30
0.0
 11
48.287836
 21
200.624791
 31
0.0
  0
LINE
  5
66
100
AcDbEntity
  8
LAYER_1
 62
     7
100
AcDbLine
 10
72.719248
 20
177.513196
 30
0.0
 11
48.249596
 21
201.982848
 31
0.0
  0
LINE
  5
65
100
AcDbEntity
  8
LAYER_1
 62
     7
100
AcDbLine
 10
68.59099
 20
152.606533
 30
0.0
 11
42.253924
 21
178.943772
 31
0.0
  0
LINE
  5
64
100
AcDbEntity
  8
LAYER_1
 62
     7
100
AcDbLine
 10
68.552749
 20
153.96459
 30
0.0
 11
42.253924
 21
180.263416
 31
0.0
  0
LINE
  5
63
100
AcDbEntity
  8
LAYER_1
 62
     7
100
AcDbLine
 10
68.54362
 20
155.293536
 30
0.0
 11
42.253924
 21
181.583232
 31
0.0
  0
LINE
  5
62
100
AcDbEntity
  8
LAYER_1
 62
     7
100
AcDbLine
 10
68.59099
 20
126.211418
 30
0.0
 11
42.253924
 21
152.548484
 31
0.0
  0
LINE
  5
61
100
AcDbEntity
  8
LAYER_1
 62
     7
100
AcDbLine
 10
68.552749
 20
127.569474
 30
0.0
 11
42.253924
 21
153.8683
 31
0.0
  0
LINE
  5
60
100
AcDbEntity
  8
LAYER_1
 62
     7
100
AcDbLine
 10
68.54362
 20
128.898248
 30
0.0
 11
42.253924
 21
155.187944
 31
0.0
  0
LINE
  5
5F
100
AcDbEntity
  8
LAYER_1
 62
     7
100
AcDbLine
 10
68.59099
 20
99.81613
 30
0.0
 11
42.253924
 21
126.153196
 31
0.0
  0
LINE
  5
5E
100
AcDbEntity
  8
LAYER_1
 62
     7
100
AcDbLine
 10
68.552749
 20
101.174186
 30
0.0
 11
42.253924
 21
127.473012
 31
0.0
  0
LINE
  5
5D
100
AcDbEntity
  8
LAYER_1
 62
     7
100
AcDbLine
 10
68.54362
 20
102.503304
 30
0.0
 11
42.253924
 21
128.792828
 31
0.0
  0
LINE
  5
5C
100
AcDbEntity
  8
LAYER_1
 62
     7
100
AcDbLine
 10
55.027821
 20
60.587516
 30
0.0
 11
42.253924
 21
73.362619
 31
0.0
  0
LINE
  5
5B
100
AcDbEntity
  8
LAYER_1
 62
     7
100
AcDbLine
 10
56.387084
 20
60.549276
 30
0.0
 11
42.253924
 21
74.682435
 31
0.0
  0
LINE
  5
5A
100
AcDbEntity
  8
LAYER_1
 62
     7
100
AcDbLine
 10
57.68709
 20
60.568913
 30
0.0
 11
42.253924
 21
76.002252
 31
0.0
  0
LINE
  5
59
100
AcDbEntity
  8
LAYER_1
 62
     7
100
AcDbLine
 10
187.382878
 20
60.411816
 30
0.0
 11
162.995047
 21
84.801025
 31
0.0
  0
LINE
  5
58
100
AcDbEntity
  8
LAYER_1
 62
     7
100
AcDbLine
 10
187.393557
 20
61.722331
 30
0.0
 11
164.324164
 21
84.792068
 31
0.0
  0
LINE
  5
57
100
AcDbEntity
  8
LAYER_1
 62
     7
100
AcDbLine
 10
187.431798
 20
63.002528
 30
0.0
 11
165.623999
 21
84.810327
 31
0.0
  0
LINE
  5
56
100
AcDbEntity
  8
LAYER_1
 62
     7
100
AcDbLine
 10
160.785707
 20
60.411816
 30
0.0
 11
136.397876
 21
84.801025
 31
0.0
  0
LINE
  5
55
100
AcDbEntity
  8
LAYER_1
 62
     7
100
AcDbLine
 10
162.065904
 20
60.451435
 30
0.0
 11
137.726649
 21
84.792068
 31
0.0
  0
LINE
  5
54
100
AcDbEntity
  8
LAYER_1
 62
     7
100
AcDbLine
 10
163.579679
 20
60.257476
 30
0.0
 11
139.026828
 21
84.810327
 31
0.0
  0
LINE
  5
53
100
AcDbEntity
  8
LAYER_1
 62
     7
100
AcDbLine
 10
111.935975
 20
82.86626
 30
0.0
 11
110.00121
 21
84.801025
 31
0.0
  0
LINE
  5
52
100
AcDbEntity
  8
LAYER_1
 62
     7
100
AcDbLine
 10
134.499973
 20
60.302262
 30
0.0
 11
111.935975
 21
82.86626
 31
0.0
  0
LINE
  5
51
100
AcDbEntity
  8
LAYER_1
 62
     7
100
AcDbLine
 10
113.294032
 20
82.828019
 30
0.0
 11
111.330328
 21
84.792068
 31
0.0
  0
LINE
  5
50
100
AcDbEntity
  8
LAYER_1
 62
     7
100
AcDbLine
 10
135.686464
 20
60.435588
 30
0.0
 11
113.294032
 21
82.828019
 31
0.0
  0
LINE
  5
4F
100
AcDbEntity
  8
LAYER_1
 62
     7
100
AcDbLine
 10
114.652089
 20
82.789779
 30
0.0
 11
112.63154
 21
84.810327
 31
0.0
  0
LINE
  5
4E
100
AcDbEntity
  8
LAYER_1
 62
     7
100
AcDbLine
 10
136.982509
 20
60.459359
 30
0.0
 11
114.652089
 21
82.789779
 31
0.0
  0
LINE
  5
4D
100
AcDbEntity
  8
LAYER_1
 62
     7
100
AcDbLine
 10
88.533959
 20
79.873161
 30
0.0
 11
83.605922
 21
84.801025
 31
0.0
  0
LINE
  5
4C
100
AcDbEntity
  8
LAYER_1
 62
     7
100
AcDbLine
 10
108.104685
 20
60.302262
 30
0.0
 11
88.533959
 21
79.873161
 31
0.0
  0
LINE
  5
4B
100
AcDbEntity
  8
LAYER_1
 62
     7
100
AcDbLine
 10
89.892015
 20
79.83492
 30
0.0
 11
84.934867
 21
84.792068
 31
0.0
  0
LINE
  5
4A
100
AcDbEntity
  8
LAYER_1
 62
     7
100
AcDbLine
 10
109.291176
 20
60.435588
 30
0.0
 11
89.892015
 21
79.83492
 31
0.0
  0
LINE
  5
49
100
AcDbEntity
  8
LAYER_1
 62
     7
100
AcDbLine
 10
91.211659
 20
79.83492
 30
0.0
 11
86.234874
 21
84.810327
 31
0.0
  0
LINE
  5
48
100
AcDbEntity
  8
LAYER_1
 62
     7
100
AcDbLine
 10
110.587221
 20
60.459359
 30
0.0
 11
91.211659
 21
79.83492
 31
0.0
  0
LINE
  5
47
100
AcDbEntity
  8
LAYER_1
 62
     7
100
AcDbLine
 10
81.495629
 20
60.516203
 30
0.0
 11
42.253924
 21
99.757907
 31
0.0
  0
LINE
  5
46
100
AcDbEntity
  8
LAYER_1
 62
     7
100
AcDbLine
 10
82.853685
 20
60.477962
 30
0.0
 11
42.253924
 21
101.077724
 31
0.0
  0
LINE
  5
45
100
AcDbEntity
  8
LAYER_1
 62
     7
100
AcDbLine
 10
84.191933
 20
60.459359
 30
0.0
 11
42.253924
 21
102.39754
 31
0.0
  0
LINE
  5
44
100
AcDbEntity
  8
LAYER_1
 62
     7
100
AcDbLine
 10
118.716957
 20
92.533542
 30
0.0
 11
75.988299
 21
92.533542
 31
0.0
  0
LINE
  5
43
100
AcDbEntity
  8
LAYER_1
 62
     7
100
AcDbLine
 10
144.371894
 20
92.533542
 30
0.0
 11
123.139426
 21
92.533542
 31
0.0
  0
LINE
  5
42
100
AcDbEntity
  8
LAYER_1
 62
     7
100
AcDbLine
 10
187.359106
 20
92.480832
 30
0.0
 11
149.958461
 21
92.480832
 31
0.0
  0
LINE
  5
41
100
AcDbEntity
  8
LAYER_1
 62
     7
100
AcDbLine
 10
89.588502
 20
97.546156
 30
0.0
 11
70.614294
 21
97.546156
 31
0.0
  0
LINE
  5
40
100
AcDbEntity
  8
LAYER_1
 62
     7
100
AcDbLine
 10
187.357728
 20
87.311466
 30
0.0
 11
76.494039
 21
87.311466
 31
0.0
  0
LINE
  5
3F
100
AcDbEntity
  8
LAYER_1
 62
     7
100
AcDbLine
 10
187.357728
 20
97.546156
 30
0.0
 11
93.467335
 21
97.546156
 31
0.0
  0
SPLINE
  5
3E
100
AcDbEntity
  8
LAYER_1
 62
     7
100
AcDbSpline
210
0.0
220
0.0
230
1.0
 70
     8
 71
     3
 72
    26
 73
    22
 74
     0
 42
0.00000001
 43
0.00000001
 40
0.0
 40
0.0
 40
0.0
 40
0.0
 40
1.0
 40
1.0
 40
1.0
 40
2.0
 40
2.0
 40
2.0
 40
3.0
 40
3.0
 40
3.0
 40
4.0
 40
4.0
 40
4.0
 40
5.0
 40
5.0
 40
5.0
 40
6.0
 40
6.0
 40
6.0
 40
7.0
 40
7.0
 40
7.0
 40
7.0
 10
187.36048448350692
 20
86.760940212673603
 30
0.0
 10
187.36048448350692
 20
86.760940212673603
 30
0.0
 10
74.991805013020823
 20
86.760940212673603
 30
0.0
 10
74.991805013020823
 20
86.760940212673603
 30
0.0
 10
74.991805013020823
 20
86.760940212673603
 30
0.0
 10
70.438766818576383
 20
91.14275716145832
 30
0.0
 10
70.438766818576383
 20
91.14275716145832
 30
0.0
 10
70.438766818576383
 20
91.14275716145832
 30
0.0
 10
70.40173204210069
 20
162.59851616753471
 30
0.0
 10
70.40173204210069
 20
162.59851616753471
 30
0.0
 10
70.113722059461793
 20
163.2678982204861
 30
0.0
 10
69.432626681857627
 20
163.68079291449652
 30
0.0
 10
68.705883789062497
 20
163.62653266059027
 30
0.0
 10
68.705883789062497
 20
163.62653266059027
 30
0.0
 10
68.7124294704861
 20
90.428588867187486
 30
0.0
 10
68.7124294704861
 20
90.428588867187486
 30
0.0
 10
68.7124294704861
 20
90.428588867187486
 30
0.0
 10
74.230266655815967
 20
85.03460286458332
 30
0.0
 10
74.230266655815967
 20
85.03460286458332
 30
0.0
 10
74.230266655815967
 20
85.03460286458332
 30
0.0
 10
187.36048448350692
 20
85.03460286458332
 30
0.0
 10
187.36048448350692
 20
85.03460286458332
 30
0.0
  0
INSERT
  5
2C
100
AcDbEntity
  8
LAYER_1
 62
     7
100
AcDbBlockReference
  2
AI9-BLK1
 10
71.488574
 20
93.447354
 30
0.0
  0
ENDSEC
  0
SECTION
  2
OBJECTS
  0
DICTIONARY
  5
19
100
AcDbDictionary
280
     0
281
     1
  3
ACAD_GROUP
350
1A
  3
ACAD_MLINESTYLE
350
1B
  3
ACAD_LAYOUT
350
1E
  3
ACAD_PLOTSETTINGS
350
22
  3
ACAD_PLOTSTYLENAME
350
1F
  3
ACAD_WIPEOUT_VARS
350
23
  0
DICTIONARY
  5
1A
102
{ACAD_REACTORS
330
19
102
}
100
AcDbDictionary
280
     0
281
     1
  0
DICTIONARY
  5
1B
102
{ACAD_REACTORS
330
19
102
}
100
AcDbDictionary
280
     0
281
     1
  3
Standard
350
1C
  0
MLINESTYLE
  5
1C
102
{ACAD_REACTORS
330
1B
102
}
100
AcDbMlineStyle
  2
Standard
 70
     0
  3

 62
     0
 51
90.0
 52
90.0
 71
     2
 49
0.5
 62
   256
  6
BYLAYER
 49
-0.5
 62
   256
  6
BYLAYER
  0
ACDBDICTIONARYWDFLT
  5
1F
102
{ACAD_REACTORS
330
19
102
}
100
AcDbDictionary
281
     1
  3
Normal
350
1D
100
AcDbDictionaryWithDefault
340
1D
  0
ACDBPLACEHOLDER
  5
1D
102
{ACAD_REACTORS
330
1F
102
}
  0
LAYOUT
  5
20
102
{ACAD_REACTORS
330
1E
102
}
100
AcDbPlotSettings
  1

  2

  4

  6

 40
0.0
 41
0.0
 42
0.0
 43
0.0
 44
0.0
 45
0.0
 46
0.0
 47
0.0
 48
0.0
 49
0.0
140
0.0
141
0.0
142
1.0
143
1.0
 70
  1024
 72
     0
 73
     0
 74
     0
  7

 75
     0
147
1.0
148
0.0
149
0.0
100
AcDbLayout
  1
Model
 70
     0
 71
     0
 10
0.0
 20
0.0
 11
0.0
 21
0.0
 12
0.0
 22
0.0
 32
0.0
 14
0.0
 24
0.0
 34
0.0
 15
0.0
 25
0.0
 35
0.0
146
0.0
 13
0.0
 23
0.0
 33
0.0
 16
0.0
 26
0.0
 36
0.0
 17
0.0
 27
0.0
 37
0.0
 76
     0
330
A
331
0
345
0
346
0
  0
LAYOUT
  5
21
102
{ACAD_REACTORS
330
1E
102
}
100
AcDbPlotSettings
  1

  2

  4

  6

 40
0.0
 41
0.0
 42
0.0
 43
0.0
 44
0.0
 45
0.0
 46
0.0
 47
0.0
 48
0.0
 49
0.0
140
0.0
141
0.0
142
1.0
143
1.0
 70
     0
 72
     0
 73
     0
 74
     0
  7

 75
     0
147
1.0
148
0.0
149
0.0
100
AcDbLayout
  1
Layout1
 70
     0
 71
     0
 10
0.0
 20
0.0
 11
0.0
 21
0.0
 12
0.0
 22
0.0
 32
0.0
 14
0.0
 24
0.0
 34
0.0
 15
0.0
 25
0.0
 35
0.0
146
0.0
 13
0.0
 23
0.0
 33
0.0
 16
0.0
 26
0.0
 36
0.0
 17
0.0
 27
0.0
 37
0.0
 76
     0
330
B
331
0
345
0
346
0
  0
DICTIONARY
  5
1E
102
{ACAD_REACTORS
330
19
102
}
100
AcDbDictionary
280
     0
281
     1
  3
Layout1
350
21
  3
Model
350
20
  0
DICTIONARY
  5
22
102
{ACAD_REACTORS
330
19
102
}
100
AcDbDictionary
280
     0
281
     1
  0
WIPEOUTVARIABLES
  5
23
100
AcDbWipeoutVariables
 70
     1
  0
ENDSEC
  0
EOF
